White Stripes

I Just Dont Know What To Do With Myself Tab

White Stripes

Difficulty: nolevelnolevel

tuner correct add songbook print version text version save to e-mail
chordsukuleleukulelecavacokeyboardtabbassdrumsharmonicsflute Guitar Pro
close

there isn't a video lesson for this song

request
chords

I Just Dont Know What To Do With Myself

  		TAB BY: DAN BURDON 
 
STANDARD TUNING 
 
INTRO 
E|-3--3-3--3--3-3--3-------------3--3-3--3--3-3--3------------- 
B|-3--3-3--5--5-5--3-------------3--3-3--5--5-5--3------------- 
G|-4--4-4--5--5-5--4-------------4--4-4--5--5-5--4------------- 
D|-5--5-5--5--5-5--5-------------5--5-5--5--5-5--5------------- 
A|-5--5-5--3--3-3--5--5-5-4-3--0-5--5-5--3--3-3--5--5-5-4-3--0- 
E|-3--3-3----------3-------------3--3-3----------3------------- 
 
VERSE (FIRST PART) 
E|-3--3-3--3--3-3--3-------- 
B|-3--3-3--5--5-5--3---8-8-- 
G|-4--4-4--5--5-5--4---7-7-- 
D|-5--5-5--5--5-5--5---5-5-- 
A|-5--5-5--3--3-3--5-------- 
E|-3--3-3----------3--------  X2 
  (I JUST DON'T KNOW WHAT TO DO WITH MYSELF,                            
   I DON'T KNOW WHAT TO DO WITH MYSELF)  
 
VERSES (2ND PART) (STRUM UPWARDS SLOWER ON THE FIRST CHORD) 
E|----------------------------------------------3--3--3----------- 
B|-3--3-3--3--3-3--3--1-1--1--1-1--1------------3--3--3--3-3-3-3-3-- 
G|-4--4-4--4--4-4--4--2-2--2--2-2--2------------4--4--4--4-4-3-4-4-- 
D|-5--5-5--5--5-5--5--3-3--3--3-3--3---3--33\5--5--5--5--5-5-3-5-5-- 
A|-5--5-5--5--5-5--5--3-3--3--3-3--3---3--33\5--5--5--5--5-5-3-5-5-- 
E|-3--3-3--3--3-3--3--1-1--1--1-1--1---1--11\3--3--3--3--3-3---3-3-- 
 
VERSE (FIRST PART) 
E|-3--3--3----- 
B|-3--5--3---8-8-- 
G|-4--5--4---7-7-- 
D|-5--5--5---5-5-- 
A|-5--3--5-------- 
E|-3-----3--------  X2 
 
VERSES (2ND PART) (STRUM UPWARDS SLOWER ON THE FIRST CHORD) 
E|----------------------------------------------3--3--3----------- 
B|-3--3-3--3--3-3--3--1-1--1--1-1--1------------3--3--3--3-3-3-3-3-- 
G|-4--4-4--4--4-4--4--2-2--2--2-2--2------------4--4--4--4-4-3-4-4-- 
D|-5--5-5--5--5-5--5--3-3--3--3-3--3---3--33\5--5--5--5--5-5-3-5-5-- 
A|-5--5-5--5--5-5--5--3-3--3--3-3--3---3--33\5--5--5--5--5-5-3-5-5-- 
E|-3--3-3--3--3-3--3--1-1--1--1-1--1---1--11\3--3--3--3--3-3---3-3-- 
 
CHORUS (DISTORTION) 
E|-----------------------------------------------------------1--1------------------ 
B|-----------------------------------------------------------3--3------------------ 
G|-4--4--4-4-4-3-4--4--4-4-4-3-2--2--2-2-2-1-2--2--2-2-2-1---3--3--2-2-2-2-2-2-2-2- 
D|-5--5--5-5-5-3-5--5--5-5-5-3-3--3--3-3-3-1-3--3--3-3-3-1---3--3--3-3-3-3-3-3-3-3- 
A|-5--5--5-5-5-3-5--5--5-5-5-3-3--3--3-3-3-1-3--3--3-3-3-1---1--1--3-3-3-3-3-3-3-3- 
E|-3--3--3-3-3---3--3--3-3-3---1--1--1-1-1---1--1--1-1-1-----------1-1-1-1-1-1-1-1- 
   (LIKE A SUMMER ROSE....) 
 
E|-3-3-3-3-3-3-3-3-3- 
B|-5-5-5-5-5-5-5-5-5- 
G|-5-5-5-5-5-5-5-5-5- 
D|-5-5-5-5-5-5-5-5-5- 
A|-3-3-3-3-3-3-3-3-3- 
E|------------------- 
 
VERSE (FIRST PART) 
E|-3--3--3----- 
B|-3--5--3---8-8-- 
G|-4--5--4---7-7-- 
D|-5--5--5---5-5-- 
A|-5--3--5-------- 
E|-3-----3--------  X2 
 
VERSES (2ND PART) (STRUM UPWARDS SLOWER ON THE FIRST CHORD) 
E|----------------------------------------------3--3--3----------- 
B|-3--3-3--3--3-3--3--1-1--1--1-1--1------------3--3--3--3-3-3-3-3-- 
G|-4--4-4--4--4-4--4--2-2--2--2-2--2------------4--4--4--4-4-3-4-4-- 
D|-5--5-5--5--5-5--5--3-3--3--3-3--3---3--33\5--5--5--5--5-5-3-5-5-- 
A|-5--5-5--5--5-5--5--3-3--3--3-3--3---3--33\5--5--5--5--5-5-3-5-5-- 
E|-3--3-3--3--3-3--3--1-1--1--1-1--1---1--11\3--3--3--3--3-3---3-3-- 
 
CHORUS (DISTORTION) 
E|-----------------------------------------------------------1--1------------------ 
B|-----------------------------------------------------------3--3------------------ 
G|-4--4--4-4-4-3-4--4--4-4-4-3-2--2--2-2-2-1-2--2--2-2-2-1---3--3--2-2-2-2-2-2-2-2- 
D|-5--5--5-5-5-3-5--5--5-5-5-3-3--3--3-3-3-1-3--3--3-3-3-1---3--3--3-3-3-3-3-3-3-3- 
A|-5--5--5-5-5-3-5--5--5-5-5-3-3--3--3-3-3-1-3--3--3-3-3-1---1--1--3-3-3-3-3-3-3-3- 
E|-3--3--3-3-3---3--3--3-3-3---1--1--1-1-1---1--1--1-1-1-----------1-1-1-1-1-1-1-1- 
   (LIKE A SUMMER ROSE....) 
 
E|-3-3-3-3-3-3-3-3-3--------------10-10-8-7-----------10-10-8-7------------10-10-8-7- 
B|-5-5-5-5-5-5-5-5-5----------------------------------------------------------------- 
G|-5-5-5-5-5-5-5-5-5----4-4-2-2-4-----------4-4-2-2-4------------4-4-2-2-3----------- 
D|-5-5-5-5-5-5-5-5-5----5-5-3-3-5-----------5-5-3-3-5------------5-5-3-3-5----------- 
A|-3-3-3-3-3-3-3-3-3----5-5-3-3-5-----------5-5-3-3-5------------5-5-3-3-5----------- 
E|----------------------3-3-1-1-3-----------3-3-1-1-3------------3-3-1-1-3----------- 
 
E|----------------------- 
B|----------------------- 
G|-4-4-2-2-4------------- 
D|-5-5-3-3-5-LET-RING---- 
A|-5-5-3-3-5------------- 
E|-3-3-1-1-3------------- 
 
THAT'S IT, ANY CORRECTIONS E-MAIL ME: [email protected] 
	  

Search Paypal
auto scroll beats size up size down change color hide chords drawings
tab show chords e-chords YouTube Clip e-chords hide all tabs e-chords go to top tab

share with facebook