We Came As Romans

Beliefs

We Came As Romans

tabs

by  LINEKERS

save to print version add songbook text version e-mail correct tuner
chordsukulelecavacokeyboardtabbassdrumsharmonicaflute Guitar Pro
close

there isn't a video lesson for this song

chords

Beliefs

	  		INTRO 
|---------------------------------------------------------------------------| 
|---------------------------------------------------------------------------| 
|---------------------------------------------------------------------------| 
|-7~----------------------------------7~------------------------------------| 
|-7~----------------------------------7~------------------------------------| 
|-7~----------------------------------7~------------------------------------| 

|------------------------------------------| 
|---66---------66-6-----66---------66-6----| 
|---99---------99-9-----99---------99-9----| 
|-7----------7--------7----------7---------| 
|-7-----777777---7----7-----777777---7-----| (2x) 
|-7-----777777---7----7-----777777---7-----| 
        .....    .          .....    . 
|---------------------------------------------------------------------------| 
|---------------------------------------------------------------------------| 
|---------------------------------------------------------------------------| 
|-7~------3~------7777777777777777-3333333333333333-------------------------| 
|-7~------3~------7777777777777777-3333333333333333-------------------------| 
|-7~------3~------7777777777777777-3333333333333333-------------------------| 
                  ................ ................ 
 VERSE 
|---------------------------------------------------------------------------| 
|---------------------------------------------------------------------------| 
|---------------------------------------------------------------------------| 
|-7---------3---------7---------3-------------------------------------------| 
|-7--(16x)--3--(16x)--7--(16x)--3--(16x)------------------------------------| 
|-7---------3---------7---------3-------------------------------------------| 

|---------------------------------------------------------------------------| 
|---------------------------------------------------------------------------| 
|---------------------------------------------------------------------------| 
|-----7-------7-------3-------3-------7-------7-------3-------3-------------| 
|-777-7---777-7---333-3---333-3---777-7---777-7---333-3---333-3-------------| 
|-777-7---777-7---333-3---333-3---777-7---777-7---333-3---333-3-------------| 
  ...     ...     ...     ...     ...     ...     ...     ... 
|----------------18----------------------| 
|-------------66-----------------66-6----| 
|-------------99-----------------99-9----| 
|----------------------------------------| 
|-0-0-000-000--------0-0-000-000---------| (2x) 
|-0-0-000-000--------0-0-000-000---------| 
  . . ... ...        . . ... ... 

            BREAKDOWN 
|----------|----------------------------------------------| 
|----------|----------------------------------------------| 
|----------|----------------------------------------------| 
|-0~-------|----------------------------------------------| 
|-0~-------|-000-000000-00000-0-0-000-000000-00000-0-0----| (2x) 
|-0~-------|-000-000000-00000-0-0-000-000000-00000-0-0----| 
             ... ...... ..... . . ... ...... ..... . . 
|---------------------------------------| 
|---------------------------------------| 
|---10-10-10-12-12-12-17-17-17--14-12---| 
|---------------------------------------| 
|-0-8--8--8--10-10-10-15-15-15--12-10---| (4x) 
|-0-------------------------------------| 
  . 
|----------------------17-20-------------------------------| 
|----------------------------------------------------------| 
|----------------------------------------------------------| 
|----------------------------------------------------------| 
|-0000---------00000----------0000---------00000-0-0-------| 
|-0000-2h3-2h3-00000----------0000-2h3-2h3-00000-0-0-------| 
   .           .....           .           ..... . . 
|------------------------17-20-----------------------------| 
|----------------------------------------------------------| 
|----------------------------------------------------------| 
|----------------------------------------------------------| 
|-000-0000---------00000--------000-0000---------00000-0-0-| 
|-000-0000-2h3-2h3-00000--------000-0000-2h3-2h3-00000-0-0-| 
  ... ....         .....        ... ....         ..... . . 

 Then repeat the BREAKDOWN from earlier 

|--------------------------------------------| 
|--------------------------------------------| 
|---101010101010101010---101010101010109-9---| 
|--------------------------------------------| 
|-0-8-8-8-8-8-8-8-8-8--0-8-8-8-8-8-8-8-7-7---| 
|-0--------------------0---------------------| 
  .                    . 
|--------------------------------------------| 
|--------------------------------------------| 
|---141414141414141414---171717171717171412--| 
|--------------------------------------------| 
|-0-121212121212121212-0-151515151515151210--| 
|-0--------------------0---------------------| 
  .                    . 
|--------------------------------| 
|--------------------------------| 
|--------------------------------| 
|--------------------------------| 
|-000-000-0000-00000-000-0000----| (2x) 
|-000-000-0000-00000-000-0000----| 
  .   ... .... ...   ... .... 

 Chorus 
|------------------------------------------------| 
|------------------------------------------------| 
|-77777777-1010101010101010-3333333333333333-----| 
|-77777777-1010101010101010-3333333333333333-----| (4x) 
|-77777777-1010101010101010-3333333333333333-----| 

 OUTRO (fade out) 
|----------------------------------------------| 
|-------1---------------------1---------1------| 
|--2--2--2---------2-----2--2--2---------2-----| 
|-2--2----2---3--3--3---2--2----2---3--3--3----| 
|------------3--3----3-------------3--3--------| 
|----------------------------------------------| 
		  

See also:

tabs Live - Lightning Crashes tabs R.E.M. - Losing my religion tabs Aerosmith - I Don't Want To Miss A Thing tabs Blue Oyster Cult - Dont Fear The Reaper tabs Cheap Trick - The Flame tabs Guns N' Roses - Estranged
e-chords

Other versions:

tabs We Came As Romans - Beliefs
auto scroll beats size up size down change color hide chords drawings
tab show chords e-chords YouTube Clip e-chords hide all tabs e-chords go to top tab

share