Van Halen

home > Van Halen

Aint talkin 'bout' love intro Tab

Van Halen

Difficulty: BeginnerBeginner

by oli%5Fkay13

tuner correct add songbook print version text version save to e-mail
chordsukulelecavacokeyboardtabbassdrumsharmonicsflute Guitar Pro
chords

Aint talkin 'bout' love intro

	  6-----------------------0-----1----------------------- 
5--------------1--------------------1----------------- 
4------------------2-----------------------2---------- 
3--------2------------------------------------------- 
2---0------------------------------------------------ 
1--------------------------------------------------- 
 
6----3----------------------------------------------- 
5------------3--------------------------------------- 
4--------------------------------------------------- 
3--------------------------------------------------- 
2-------------------------3--------------2----3-------- 
1-----------------3---------------------------------- 
 
 
 
  use alternate picking!!!!!!!! 

	  

there isn't a video lesson for this song

request
Search
auto scroll beats size up size down change color hide chords drawings
tab show chords e-chords YouTube Clip e-chords hide all tabs e-chords go to top tab