Unwound

Scarlette

Unwound

tabs

by  JOV-CORREA

save to print version add songbook text version e-mail correct tuner
chordsukulelecavacokeyboardtabbassdrumsharmonicaflute Guitar Pro
close

there isn't a video lesson for this song

chords

Scarlette

	  		TUNING: Alternate (F# A E G A E) 



Intro: 
e |------------------------------------------------------------------------------------------------|| 
A |-7-----7-----7-----7-----7-----7-----7-----7-----7-----7-----7-----7-----7-----7-----7-----7----|| 
G |-9-----9-----9-----9-----9-----9-----9-----9-----9-----9-----9-----9-----9-----9-----9-----9----|| x 10 
E |-x-----x-----x-----x-----x-----x-----x-----x-----x-----x-----x-----x-----x-----x-----x-----x----|| 
A |-9-----9-----9-----9-----9-----9-----9-----9-----9-----9-----9-----9-----9-----9-----9-----9----|| 
F#|-0-----0-----0-----0-----0-----0-----0-----0-----0-----0-----0-----0-----0-----0-----0-----0----|| 
+ 
e |------------------------------------------------------------------------------------------------|| 
A |-9-----9-----9-----9-----9-----9-----9-----9-----9-----9-----9-----9-----9-----9-----9-----9----|| 
G |-7-----7-----7-----7-----7-----7-----7-----7-----7-----7-----7-----7-----7-----7-----7-----7----|| x 2 
E |-x-----x-----x-----x-----x-----x-----x-----x-----x-----x-----x-----x-----x-----x-----x-----x----|| 
A |-9-----9-----9-----9-----9-----9-----9-----9-----9-----9-----9-----9-----9-----9-----9-----9----|| 
F#|-0-----0-----0-----0-----0-----0-----0-----0-----0-----0-----0-----0-----0-----0-----0-----0----|| 
+ 
e |------------------------------------------------------------------------------------------------|| 
A |-7-----7-----7-----7-----7-----7-----7-----7-----7-----7-----7-----7-----7-----7-----7-----7----|| 
G |-9-----9-----9-----9-----9-----9-----9-----9-----9-----9-----9-----9-----9-----9-----9-----9----|| x 4 
E |-x-----x-----x-----x-----x-----x-----x-----x-----x-----x-----x-----x-----x-----x-----x-----x----|| 
A |-9-----9-----9-----9-----9-----9-----9-----9-----9-----9-----9-----9-----9-----9-----9-----9----|| 
F#|-0-----0-----0-----0-----0-----0-----0-----0-----0-----0-----0-----0-----0-----0-----0-----0----|| 
+ 
e |------------------------------------------------------------------------------------------------|| 
A |-9-----9-----9-----9-----9-----9-----9-----9-----9-----9-----9-----9-----9-----9-----9-----9----|| 
G |-7-----7-----7-----7-----7-----7-----7-----7-----7-----7-----7-----7-----7-----7-----7-----7----|| x 2 
E |-x-----x-----x-----x-----x-----x-----x-----x-----x-----x-----x-----x-----x-----x-----x-----x----|| 
A |-9-----9-----9-----9-----9-----9-----9-----9-----9-----9-----9-----9-----9-----9-----9-----9----|| 
F#|-0-----0-----0-----0-----0-----0-----0-----0-----0-----0-----0-----0-----0-----0-----0-----0----|| 



Chorus: 
e |------------------------------------------------------------------------------------------------| 
A |------------------------------------------------------------------------------------------------| 
G |-5-----5-----5-----5-----5-----5-----5-----5-----5-----5-----5-----5-----5-----5-----5-----5----| 
E |-x-----x-----x-----x-----x-----x-----x-----x-----x-----x-----x-----x-----x-----x-----x-----x----| 
A |-7-----7-----7-----7-----7-----7-----7-----7-----7-----7-----7-----7-----7-----7-----7-----7----| 
F#|-6-----6-----6-----6-----6-----6-----6-----6-----6-----6-----6-----6-----6-----6-----6-----6----| 
+ 
e |------------------------------------------------------------------------------------------------| 
A |------------------------------------------------------------------------------------------------| 
G |-5----/7-----7-----7-----7-----7-----7-----7-----7-----7-----7-----7-----7-----7-----7-----7----| 
E |-x----/x-----x-----x-----x-----x-----x-----x-----x-----x-----x-----x-----x-----x-----x-----x----| 
A |-7----/9-----9-----9-----9-----9-----9-----9-----9-----9-----9-----9-----9-----9-----9-----9----| 
F#|-6----/8-----8-----8-----8-----8-----8-----8-----8-----8-----8-----8-----8-----8-----8-----8----| 
+ 
e |------------------------------------------------------------------------------------------------| 
A |------------------------------------------------------------------------------------------------| 
G |-5-----5-----5-----5-----5-----5-----5-----5-----5-----5-----5-----5-----5-----5-----5-----5----| 
E |-x-----x-----x-----x-----x-----x-----x-----x-----x-----x-----x-----x-----x-----x-----x-----x----| 
A |-7-----7-----7-----7-----7-----7-----7-----7-----7-----7-----7-----7-----7-----7-----7-----7----| 
F#|-6-----6-----6-----6-----6-----6-----6-----6-----6-----6-----6-----6-----6-----6-----6-----6----| 
+ 
e |------------------------------------------------------------------------------------------------| 
A |------------------------------------------------------------------------------------------------| 
G |-5----/7-----7-----7-----7-----7-----7-----7-----7-----7-----7-----7-----7-----7-----7-----7----| 
E |-x----/x-----x-----x-----x-----x-----x-----x-----x-----x-----x-----x-----x-----x-----x-----x----| 
A |-7----/9-----9-----9-----9-----9-----9-----9-----9-----9-----9-----9-----9-----9-----9-----9----| 
F#|-6----/8-----8-----8-----8-----8-----8-----8-----8-----8-----8-----8-----8-----8-----8-----8----| 
+ 
e |------------------------------------------------------------------------------------------------| 
A |------------------------------------------------------------------------------------------------| 
G |-5-----5-----5-----5-----5-----5-----5-----5-----5-----5-----5-----5-----5-----5-----5-----5----| 
E |-x-----x-----x-----x-----x-----x-----x-----x-----x-----x-----x-----x-----x-----x-----x-----x----| 
A |-7-----7-----7-----7-----7-----7-----7-----7-----7-----7-----7-----7-----7-----7-----7-----7----| 
F#|-6-----6-----6-----6-----6-----6-----6-----6-----6-----6-----6-----6-----6-----6-----6-----6----| 
+ 
e |------------------------------------------------------------------------------------------------| 
A |------------------------------------------------------------------------------------------------| 
G |-5----/7-----7-----7-----7-----7-----7-----7-----7-----7-----7-----7-----7-----7-----7-----7----| 
E |-x----/x-----x-----x-----x-----x-----x-----x-----x-----x-----x-----x-----x-----x-----x-----x----| 
A |-7----/9-----9-----9-----9-----9-----9-----9-----9-----9-----9-----9-----9-----9-----9-----9----| 
F#|-6----/8-----8-----8-----8-----8-----8-----8-----8-----8-----8-----8-----8-----8-----8-----8----| 
+ 
e |------------------------------------------------------------------------------------------------| 
A |------------------------------------------------------------------------------------------------| 
G |-5-----5-----5-----5-----5-----5-----5-----5-----5-----5-----5-----5-----5-----5-----5-----5----| 
E |-x-----x-----x-----x-----x-----x-----x-----x-----x-----x-----x-----x-----x-----x-----x-----x----| 
A |-7-----7-----7-----7-----7-----7-----7-----7-----7-----7-----7-----7-----7-----7-----7-----7----| 
F#|-6-----6-----6-----6-----6-----6-----6-----6-----6-----6-----6-----6-----6-----6-----6-----6----| 
+ 
e |------------------------------------------------------------------------------------------------| 
A |------------------------------------------------------------------------------------------------| 
G |-5----/7-----7-----7-----7-----7-----7-----7-----7-----7-----7-----7-----7-----7-----7-----7----| 
E |-x----/x-----x-----x-----x-----x-----x-----x-----x-----x-----x-----x-----x-----x-----x-----x----| 
A |-7----/9-----9-----9-----9-----9-----9-----9-----9-----9-----9-----9-----9-----9-----9-----9----| 
F#|-6----/8-----8-----8-----8-----8-----8-----8-----8-----8-----8-----8-----8-----8-----8-----8----| 



INTERLUDE: 
e |-0-----0-----0-----0-----0-----0-----0-----0-----0-----0-----0-----0-----0-----0-----0-----0----| 
A |-0-----0-----0-----0-----0-----0-----0-----0-----0-----0-----0-----0-----0-----0-----0-----0----| 
G |-9-----9-----9-----9-----9-----9-----9-----9-----9-----9-----9-----9-----9-----9-----9-----9----| 
E |-x-----x-----x-----x-----x-----x-----x-----x-----x-----x-----x-----x-----x-----x-----x-----x----| 
A |-9-----9-----9-----9-----9-----9-----9-----9-----9-----9-----9-----9-----9-----9-----9-----9----| 
F#|-0-----0-----0-----0-----0-----0-----0-----0-----0-----0-----0-----0-----0-----0-----0-----0----| 



VERSE I: 
e |------------------------------------------------------------------------------------------------|| 
A |-7-----7-----7-----7-----7-----7-----7-----7-----7-----7-----7-----7-----7-----7-----7-----7----|| 
G |-9-----9-----9-----9-----9-----9-----9-----9-----9-----9-----9-----9-----9-----9-----9-----9----|| x 4 
E |-x-----x-----x-----x-----x-----x-----x-----x-----x-----x-----x-----x-----x-----x-----x-----x----|| 
A |-9-----9-----9-----9-----9-----9-----9-----9-----9-----9-----9-----9-----9-----9-----9-----9----|| 
F#|-0-----0-----0-----0-----0-----0-----0-----0-----0-----0-----0-----0-----0-----0-----0-----0----|| 
+ 
e |------------------------------------------------------------------------------------------------|| 
A |-9-----9-----9-----9-----9-----9-----9-----9-----9-----9-----9-----9-----9-----9-----9-----9----|| 
G |-7-----7-----7-----7-----7-----7-----7-----7-----7-----7-----7-----7-----7-----7-----7-----7----|| x 2 
E |-x-----x-----x-----x-----x-----x-----x-----x-----x-----x-----x-----x-----x-----x-----x-----x----|| 
A |-9-----9-----9-----9-----9-----9-----9-----9-----9-----9-----9-----9-----9-----9-----9-----9----|| 
F#|-0-----0-----0-----0-----0-----0-----0-----0-----0-----0-----0-----0-----0-----0-----0-----0----|| 
+ 
e |------------------------------------------------------------------------------------------------|| 
A |-7-----7-----7-----7-----7-----7-----7-----7-----7-----7-----7-----7-----7-----7-----7-----7----|| 
G |-9-----9-----9-----9-----9-----9-----9-----9-----9-----9-----9-----9-----9-----9-----9-----9----|| x 4 
E |-x-----x-----x-----x-----x-----x-----x-----x-----x-----x-----x-----x-----x-----x-----x-----x----|| 
A |-9-----9-----9-----9-----9-----9-----9-----9-----9-----9-----9-----9-----9-----9-----9-----9----|| 
F#|-0-----0-----0-----0-----0-----0-----0-----0-----0-----0-----0-----0-----0-----0-----0-----0----|| 
+ 
e |------------------------------------------------------------------------------------------------|| 
A |-9-----9-----9-----9-----9-----9-----9-----9-----9-----9-----9-----9-----9-----9-----9-----9----|| 
G |-7-----7-----7-----7-----7-----7-----7-----7-----7-----7-----7-----7-----7-----7-----7-----7----|| x 2 
E |-x-----x-----x-----x-----x-----x-----x-----x-----x-----x-----x-----x-----x-----x-----x-----x----|| 
A |-9-----9-----9-----9-----9-----9-----9-----9-----9-----9-----9-----9-----9-----9-----9-----9----|| 
F#|-0-----0-----0-----0-----0-----0-----0-----0-----0-----0-----0-----0-----0-----0-----0-----0----|| 



BRIDGE I: 
e |------------------------------------------------------------------------------------------------| 
A |------------------------------------------------------------------------------------------------| 
G |-------------2-----------2-----------------2-----------------4-----------4-----------------0----| 
E |------------------------------------------------------------------------------------------------| 
A |-------4-----------4-----------4-----------------------6-----------6-----------6----------------| 
F#|-3-----------------------------------3----------/5-----------------------------------5----------| 
+ 
e |------------------------------------------------------------------------------------------------| 
A |-------------------------------------------------------------------------0-----------------0----| 
G |-------------0-----------0-----------------0-----------------3-----------------3----------------| 
E |------------------------------------------------------------------------------------------------| 
A |-------2-----------2-----------2-----------------------5-----------5-----------------5----------| 
F#|-1-----------------------------------1----------/4----------------------------------------------| 
+ 
e |------------------------------------------------------------------------------------------------| 
A |------------------------------------------------------------------------------------------------| 
G |-------------2-----------2-----------------2-----------------4-----------4-----------------0----| 
E |------------------------------------------------------------------------------------------------| 
A |-------4-----------4-----------4-----------------------6-----------6-----------6----------------| 
F#|-3-----------------------------------3----------/5-----------------------------------5----------| 
+ 
e |------------------------------------------------------------------------------------------------| 
A |-------------------------------------------------------------------------0-----------------0----| 
G |-------------0-----------0-----------------0-----------------3-----------------3----------------| 
E |------------------------------------------------------------------------------------------------| 
A |-------2-----------2-----------2-----------------------5-----------5-----------------5----------| 
F#|-1-----------------------------------1----------/4----------------------------------------------| 
+ 
e |------------------------------------------------------------------------------------------------| 
A |------------------------------------------------------------------------------------------------| 
G |-------------2-----------2-----------------2-----------------4-----------4-----------------0----| 
E |------------------------------------------------------------------------------------------------| 
A |-------4-----------4-----------4-----------------------6-----------6-----------6----------------| 
F#|-3-----------------------------------3----------/5-----------------------------------5----------| 
+ 
e |------------------------------------------------------------------------------------------------| 
A |-------------------------------------------------------------------------0-----------------0----| 
G |-------------0-----------0-----------------0-----------------3-----------------3----------------| 
E |------------------------------------------------------------------------------------------------| 
A |-------2-----------2-----------2-----------------------5-----------5-----------------5----------| 
F#|-1-----------------------------------1----------/4----------------------------------------------| 
+ 
e |------------------------------------------------------------------------------------------------| 
A |------------------------------------------------------------------------------------------------| 
G |-------------2-----------2-----------------2-----------------2-----------2-----------------2----| 
E |------------------------------------------------------------------------------------------------| 
A |-------4-----------4-----------4-----------------------4-----------4-----------4----------------| 
F#|-3-----------------------------------3-----------3-----------------------------------3----------| 
+ 
e |------------------------------------------------------------------------------------------------| 
A |------------------------------------------------------------------------------------------------| 
G |-------------2-----------2-----------------2-----------------2-----------2-----------------0----| 
E |------------------------------------------------------------------------------------------------| 
A |-------4-----------4-----------4-----------------------4-----------4-----------4----------------| 
F#|-3-----------------------------------3-----------3-----------------------------------3----------| 



BRIDGE II: 
e |------------------------------------------------------------------------------------------------|| 
A |------------------------------------------------------------------------------------------------|| 
G |-------------0-----------0-----------------0-----------------0-----------0-----------------0----|| x 2 
E |------------------------------------------------------------------------------------------------|| 
A |-------3-----------3-----------3-----------------------3-----------3-----------3----------------|| 
F#|-1-----------------------------------1-----------1-----------------------------------1----------|| 
+ 
e |------------------------------------------------------------------------------------------------| 
A |------------------------------------------------------------------------------------------------| 
G |-------------2-----------2-----------------2-----------------2-----------2-----------------2----| 
E |------------------------------------------------------------------------------------------------| 
A |-------4-----------4-----------4-----------------------4-----------4-----------4----------------| 
F#|/3-----------------------------------3-----------3-----------------------------------3----------| 
+ 
e |------------------------------------------------------------------------------------------------| 
A |------------------------------------------------------------------------------------------------| 
G |-------------2-----------2-----------------2-----------------2-----------2-----------------0----| 
E |------------------------------------------------------------------------------------------------| 
A |-------4-----------4-----------4-----------------------4-----------4-----------4----------------| 
F#|-3-----------------------------------3-----------3-----------------------------------3----------| 
+ 
e |------------------------------------------------------------------------------------------------|| 
A |------------------------------------------------------------------------------------------------|| 
G |-------------0-----------0-----------------0-----------------0-----------0-----------------0----|| x 2 
E |------------------------------------------------------------------------------------------------|| 
A |-------3-----------3-----------3-----------------------3-----------3-----------3----------------|| 
F#|-1-----------------------------------1-----------1-----------------------------------1----------|| 
+ 
e |------------------------------------------------------------------------------------------------|| 
A |------------------------------------------------------------------------------------------------|| 
G |-------------2-----------2-----------------2-----------------2-----------2-----------------2----|| x 2 
E |------------------------------------------------------------------------------------------------|| 
A |-------4-----------4-----------4-----------------------4-----------4-----------4----------------|| 
F#|-3-----------------------------------3-----------3-----------------------------------3----------|| 
+ 
e |------------------------------------------------------------------------------------------------| 
A |------------------------------------------------------------------------------------------------| 
G |-------------5-----------5-----------------5-----------5-----------------5-----------------5----| 
E |------------------------------------------------------------------------------------------------| 
A |-------7-----------7-----------7-----------------------------------7-----------7----------------| 
F#|/6-----------------------------------6-----------6-----------6-----------------------6----------| 
+ 
e |------------------------------------------------------------------------------------------------| 
A |------------------------------------------------------------------------------------------------| 
G |-------------7-----------7-----------------7-----------------7-----------------6-----------6----| 
E |------------------------------------------------------------------------------------------------| 
A |-------9-----------9-----------9-----------------------9-----------9----------------------------| 
F#|/8-----------------------------------8-----------8-----------------------8-----------8----------| 



VERSE II: 
e |------------------------------------------------------------------------------------------------|| 
A |-7-----7-----7-----7-----7-----7-----7-----7-----7-----7-----7-----7-----7-----7-----7-----7----|| 
G |-9-----9-----9-----9-----9-----9-----9-----9-----9-----9-----9-----9-----9-----9-----9-----9----|| x 4 
E |-x-----x-----x-----x-----x-----x-----x-----x-----x-----x-----x-----x-----x-----x-----x-----x----|| 
A |-9-----9-----9-----9-----9-----9-----9-----9-----9-----9-----9-----9-----9-----9-----9-----9----|| 
F#|-0-----0-----0-----0-----0-----0-----0-----0-----0-----0-----0-----0-----0-----0-----0-----0----|| 
+ 
e |------------------------------------------------------------------------------------------------|| 
A |-9-----9-----9-----9-----9-----9-----9-----9-----9-----9-----9-----9-----9-----9-----9-----9----|| 
G |-7-----7-----7-----7-----7-----7-----7-----7-----7-----7-----7-----7-----7-----7-----7-----7----|| x 2 
E |-x-----x-----x-----x-----x-----x-----x-----x-----x-----x-----x-----x-----x-----x-----x-----x----|| 
A |-9-----9-----9-----9-----9-----9-----9-----9-----9-----9-----9-----9-----9-----9-----9-----9----|| 
F#|-0-----0-----0-----0-----0-----0-----0-----0-----0-----0-----0-----0-----0-----0-----0-----0----|| 
+ 
e |------------------------------------------------------------------------------------------------|| 
A |-10----10----10----10----10----10----10----10----10----10----10----10----10----10----10----10---|| 
G |-7-----7-----7-----7-----7-----7-----7-----7-----7-----7-----7-----7-----7-----7-----7-----7----|| x 2 
E |-x-----x-----x-----x-----x-----x-----x-----x-----x-----x-----x-----x-----x-----x-----x-----x----|| 
A |-10----10----10----10----10----10----10----10----10----10----10----10----10----10----10----10---|| 
F#|-0-----0-----0-----0-----0-----0-----0-----0-----0-----0-----0-----0-----0-----0-----0-----0----|| 
+ 
e |-------#----------------------------------------------------------------------------------------| 
A |-10----#----------------------------------------------------------------------------------------| 
G |-7-----#----------------------------------------------------------------------------------------| 
E |-x-----#----------------------------------------------------------------------------------------| 
A |-10----#----------------------------------------------------------------------------------------| 
F#|-0-----#----------------------------------------------------------------------------------------| 
 
		  

See also:

tabs Aerosmith - Dream On tabs Guns N' Roses - Live and Let Die tabs The Doors - People Are Strange tabs Cheap Trick - The Flame tabs Creed - With arms wide open tabs Van Halen - Pretty Woman
e-chords

Other versions:

tabs Unwound - Scarlette
auto scroll beats size up size down change color hide chords drawings
tab show chords e-chords YouTube Clip e-chords hide all tabs e-chords go to top tab

share