Twisted Syster

Were not gonna take

Twisted Syster

tabs Advanced advanced

save to print version add songbook text version e-mail correct tuner
chordsukulelecavacokeyboardtabbassdrumsharmonicaflute Guitar Pro
close

there isn't a video lesson for this song

chords

Were not gonna take

	  		 
Essa intro logo abaixo é tocada 2 x 
Afinação: e-B-G-D-A-E   
Use somente palhetada p/ baixo 
                          
|------------------------------------------------------------	| 
|------------------------------------------------------------	| 
|-9	9	8	8	6	6	 4	-	----	| 
|-9	9	8	8	6	6	 4	-	----	|		 
|-7	7	6	6	4	4	 2	-	----	| 
|------------------------------------------------------------	| 
Depois toca 
 
|------------------------------------------------------------	|			 
|-----------------------------------------------------------	|	 
|------------------------------4----------------------------	|     
|-2--------------------------- 2----------------------------	| 
|-0--------------------------- 2--2--2--2--2--2--2--2---	| 
|-0- 0- 0- 0- 0- 0- 0--------------------------------------	| 
 
|-----------------------------------------------------------	| 
|------------------------------------------------------------	| 
|-----------------------------2----------------------------	|			    
|-2-------------------------- 0-----------------------------	| 
|-0-------------------------- 0--0--0--0--0--0--0--0----	| 
|-0- 0- 0- 0- 0- 0- 0--------------------------------------	| 
 
|------------------------------------------------------------	|			 
|-----------------------------------------------------------	|	 
|------------------------------4----------------------------	|     
|-2--------------------------- 2----------------------------	| 
|-0--------------------------- 2--2--2--2--2--2--2--2---	| 
|-0- 0- 0- 0- 0- 0- 0--------------------------------------	| 
 
|-----------------------------------------------------------	| 
|-----------------------------------------------------------	| 
|-----------------------------4- 4- 4- 4- 4- 4- 4- 4------	|    
|-2-------------------------- 2- 2- 2- 2- 2- 2- 2- 2------	| 
|-0-------------------------- 2- 2- 2- 2- 2- 2- 2- 2------	| 
|-0- 0- 0- 0- 0- 0- 0-------------------------------------	| 
 
|------------------------------------------------------------	|			 
|-----------------------------------------------------------	|	 
|------------------------------4----------------------------	|     
|-2--------------------------- 2----------------------------	| 
|-0--------------------------- 2--2--2--2--2--2--2--2---	| 
|-0- 0- 0- 0- 0- 0- 0--------------------------------------	| 
 
|-----------------------------------------------------------	| 
|------------------------------------------------------------	| 
|-----------------------------2----------------------------	|			    
|-2-------------------------- 0-----------------------------	| 
|-0-------------------------- 0--0--0--0--0--0--0--0----	| 
|-0- 0- 0- 0- 0- 0- 0--------------------------------------	| 
 
|------------------------------------------------------------	|			 
|-----------------------------------------------------------	|	 
|------------------------------4----------------------------	|     
|-2--------------------------- 2----------------------------	| 
|-0--------------------------- 2--2--2--2--2--2--2--2---	| 
|-0- 0- 0- 0- 0- 0- 0--------------------------------------	| 
 
|-----------------------------------------------------------	| 
|-----------------------------------------------------------	| 
|-----------------------------4- 4- 4- 4- 4- 4- 4- 4------	|    
|-2-------------------------- 2- 2- 2- 2- 2- 2- 2- 2------	| 
|-0-------------------------- 2- 2- 2- 2- 2- 2- 2- 2------	| 
|-0- 0- 0- 0- 0- 0- 0-------------------------------------	| 
 
nessa parte, vc toca uma vez e deixa soar 
|-----------------------------------------------------------	| 
|-----------------------------------------------------------	| 
|------------------------------4----------------------------	|    
|-2--------------------------- 2---------------------------	| 
|-0--------------------------- 2----------------------------| 
|-0-- - -- -- -- -- -----------------------------------------	| 
 
|-----------------------------------------------------------	| 
|-----------------------------------------------------------	| 
|------------------------------2----------------------------	|     
|-2--------------------------- 0---------------------------	| 
|-0--------------------------- 0---------------------------	| 
|-0---------------------------------------------------------	| 
 
|-----------------------------------------------------------	| 
|-----------------------------------------------------------	| 
|------------------------------4----------------------------	|    
|-2--------------------------- 2---------------------------	| 
|-0--------------------------- 2----------------------------| 
|-0-- - -- -- -- -- -----------------------------------------	| 
 
|------------------------------------------------------------	| 
|------------------------------------------------------------	| 
|-9	9	8	8	6	6	 4	-	----	| 
|-9	9	8	8	6	6	 4	-	----	|		 
|-7	7	6	6	4	4	 2	-	----	| 
|------------------------------------------------------------	| 
 
|------------------------------------------------------------	|			 
|-----------------------------------------------------------	|	 
|------------------------------4----------------------------	|     
|-2--------------------------- 2----------------------------	| 
|-0--------------------------- 2--2--2--2--2--2--2--2---	| 
|-0- 0- 0- 0- 0- 0- 0--------------------------------------	| 
 
 
 
 
 
|-----------------------------------------------------------	| 
|------------------------------------------------------------	| 
|-----------------------------2----------------------------	|			    
|-2-------------------------- 0-----------------------------	| 
|-0-------------------------- 0--0--0--0--0--0--0--0----	| 
|-0- 0- 0- 0- 0- 0- 0--------------------------------------	| 
 
|------------------------------------------------------------	|			 
|-----------------------------------------------------------	|	 
|------------------------------4----------------------------	|     
|-2--------------------------- 2----------------------------	| 
|-0--------------------------- 2--2--2--2--2--2--2--2---	| 
|-0- 0- 0- 0- 0- 0- 0--------------------------------------	| 
 
|-----------------------------------------------------------	| 
|-----------------------------------------------------------	| 
|-----------------------------4- 4- 4- 4- 4- 4- 4- 4------	|    
|-2-------------------------- 2- 2- 2- 2- 2- 2- 2- 2------	| 
|-0-------------------------- 2- 2- 2- 2- 2- 2- 2- 2------	| 
|-0- 0- 0- 0- 0- 0- 0-------------------------------------	| 
 
|------------------------------------------------------------	|			 
|-----------------------------------------------------------	|	 
|------------------------------4----------------------------	|     
|-2--------------------------- 2----------------------------	| 
|-0--------------------------- 2--2--2--2--2--2--2--2---	| 
|-0- 0- 0- 0- 0- 0- 0--------------------------------------	| 
 
|-----------------------------------------------------------	| 
|------------------------------------------------------------	| 
|-----------------------------2----------------------------	|			    
|-2-------------------------- 0-----------------------------	| 
|-0-------------------------- 0--0--0--0--0--0--0--0----	| 
|-0- 0- 0- 0- 0- 0- 0--------------------------------------	| 
 
|------------------------------------------------------------	|			 
|-----------------------------------------------------------	|	 
|------------------------------4----------------------------	|     
|-2--------------------------- 2----------------------------	| 
|-0--------------------------- 2--2--2--2--2--2--2--2---	| 
|-0- 0- 0- 0- 0- 0- 0--------------------------------------	| 
 
|-----------------------------------------------------------	| 
|-----------------------------------------------------------	| 
|-----------------------------4- 4- 4- 4- 4- 4- 4- 4------	|    
|-2-------------------------- 2- 2- 2- 2- 2- 2- 2- 2------	| 
|-0-------------------------- 2- 2- 2- 2- 2- 2- 2- 2------	| 
|-0- 0- 0- 0- 0- 0- 0-------------------------------------	| 
 
 
 
 
 
 
|-----------------------------------------------------------	| 
|-----------------------------------------------------------	| 
|-----------------------------------------------------------	| 
|-----------------------------------------------------------	| 
|-5--5--5--5--5--5--5--5--4--4--4--4--2--2--2--2----	|      
|-----------------------------------------------------------	| 
 
|-----------------------------------------------------------	| 
|-----------------------------------------------------------	| 
|-----------------------------------------------------------	| 
|-----------------------------------------------------------	| 
|-5--5--5--5--5--5--5--5--4--4--4--4--2--2--2--2----	|      
|-----------------------------------------------------------	| 
We?re.... 
Well.... 
|------------------------------------------------------------	| 
|------------------------------------------------------------	| 
|--------------------------------------------------- --------	| 
|-2---x---2-------3---x---3-------4---x---4-------------	| 
|-2---x---2-------3---x---3-------4---x---4-------------	|  
|-0---x---0-------1---x---1-------2---x---2-------------	| 
 
|-----------------------------------------------------------	| 
|-----------------------------------------------------------	| 
|-4-4-4-4-4-4-4-4-4-4-4-4-4-4-4-4-------------------	| 
|-4-4-4-4-4-4-4-4-4-4-4-4-4-4-4-4-------------------	| 
|-2-2-2-2-2-2-2-2-2-2-2-2-2-2-2-2-------------------	| 
|-----------------------------------------------------------	| 
de novo, só tocando uma vez e deixando soar 
|-----------------------------------------------------------	| 
|-----------------------------------------------------------	| 
|------------------------------4----------------------------	|    
|-2--------------------------- 2---------------------------	| 
|-0--------------------------- 2----------------------------| 
|-0-- - -- -- -- -- -----------------------------------------	| 
 
|-----------------------------------------------------------	| 
|-----------------------------------------------------------	| 
|------------------------------2----------------------------	|     
|-2--------------------------- 0---------------------------	| 
|-0--------------------------- 0---------------------------	| 
|-0---------------------------------------------------------	| 
 
|-----------------------------------------------------------	| 
|-----------------------------------------------------------	| 
|------------------------------4----------------------------	|    
|-2--------------------------- 2---------------------------	| 
|-0--------------------------- 2----------------------------| 
|-0-- - -- -- -- -- -----------------------------------------	| 
 
 
 
 
 
|-----------------------------------------------------------	| 
|-----------------------------------------------------------	| 
|-----------------------------4- 4- 4- 4- 4- 4- 4- 4------	|    
|-2-------------------------- 2- 2- 2- 2- 2- 2- 2- 2------	| 
|-0-------------------------- 2- 2- 2- 2- 2- 2- 2- 2------	| 
|-0- 0- 0- 0- 0- 0- 0-------------------------------------	| 
mais uma vez 
|-----------------------------------------------------------	| 
|-----------------------------------------------------------	| 
|------------------------------4----------------------------	|    
|-2--------------------------- 2---------------------------	| 
|-0--------------------------- 2----------------------------| 
|-0-- - -- -- -- -- -----------------------------------------	| 
 
|-----------------------------------------------------------	| 
|-----------------------------------------------------------	| 
|------------------------------2----------------------------	|     
|-2--------------------------- 0---------------------------	| 
|-0--------------------------- 0---------------------------	| 
|-0---------------------------------------------------------	| 
 
|-----------------------------------------------------------	| 
|-----------------------------------------------------------	| 
|------------------------------4----------------------------	|    
|-2--------------------------- 2---------------------------	| 
|-0--------------------------- 2----------------------------| 
|-0-- - -- -- -- -- -----------------------------------------	| 
 
|------------------------------------------------------------	| 
|------------------------------------------------------------	| 
|-9	9	8	8	6	6	 4	-	----	| 
|-9	9	8	8	6	6	 4	-	----	|		 
|-7	7	6	6	4	4	 2	-	----	| 
|------------------------------------------------------------	| 
 
SOLO  
|------------------------------------------------------------------------------	|  
|------------------------------------------------------------------------------	| 
|-9M--9M--9M---11------11~~ --13--13--13--14-14-14-13-11~~--	| 
|--------------------------9--------------------------------------------------	| 
|------------------------------------------------------------------------------	| 
|------------------------------------------------------------------------------	| 
 
 
|------------------------------------------------------	| 
|------------------------------------------------------	| 
|---13---11---9--11--13------9----9----9 ^^^----	| 
|------------------------------------------------------	| 
|------------------------------------------------------	| 
|------------------------------------------------------	| 
 
 
 
 
|------------------------------------------------------	| 
|12M-12M-12M-12M-12M-12M-12M-12M-	|	 
|------------------------------------------------------	| 
|------------------------------------------------------	| 
|------------------------------------------------------	| 
|------------------------------------------------------	| 
 
                                   2 
                                   / (use a alavanca pra dar esse efeito) 
 
|---------------------------------4-----4--2----4--5---0 ^^^-	| 
|---5---5--------5--7------------------------------------------	| 
|------------4------------4-------------------------------------	| 
|----------------------------------------------------------------	| 
|----------------------------------------------------------------	| 
|----------------------------------------------------------------	| 
 
|---4----4----2----0--2-----4------0--0--------------	| 
|--------------------------------------------------------	| 
|--------------------------------------------------------	| 
|--------------------------------------------------------	| 
|--------------------------------------------------------	| 
|--------------------------------------------------------	| 
 
|------------------------------------------------------------	| 
|------------------------------------------------------------	| 
|-9	9	8	8	6	6	 4	-	----	| 
|-9	9	8	8	6	6	 4	-	----	|		 
|-7	7	6	6	4	4	 2	-	----	| 
|------------------------------------------------------------	| 
 
|-----------------------------------------------------------	| 
|-----------------------------------------------------------	| 
|-----------------------------------------------------------	| 
|-----------------------------------------------------------	| 
|-5--5--5--5--5--5--5--5--4--4--4--4--2--2--2--2----	|      
|-----------------------------------------------------------	| 
 
|-----------------------------------------------------------	| 
|-----------------------------------------------------------	| 
|-----------------------------------------------------------	| 
|-----------------------------------------------------------	| 
|-5--5--5--5--5--5--5--5--4--4--4--4--2--2--2--2----	|      
|-----------------------------------------------------------	| 
We?re.... 
Well.... 
|------------------------------------------------------------	| 
|------------------------------------------------------------	| 
|--------------------------------------------------- --------	| 
|-2---x---2-------3---x---3-------4---x---4-------------	| 
|-2---x---2-------3---x---3-------4---x---4-------------	|  
|-0---x---0-------1---x---1-------2---x---2-------------	| 
 
 
|-----------------------------------------------------------	| 
|-----------------------------------------------------------	| 
|-4-4-4-4-4-4-4-4-4-4-4-4-4-4-4-4-------------------	| 
|-4-4-4-4-4-4-4-4-4-4-4-4-4-4-4-4-------------------	| 
|-2-2-2-2-2-2-2-2-2-2-2-2-2-2-2-2-------------------	| 
|-----------------------------------------------------------	| 
ta no fim 
|-----------------------------------------------------------	| 
|-----------------------------------------------------------	| 
|------------------------------4----------------------------	|    
|-2--------------------------- 2---------------------------	| 
|-0--------------------------- 2----------------------------| 
|-0-- - -- -- -- -- -----------------------------------------	| 
 
|-----------------------------------------------------------	| 
|-----------------------------------------------------------	| 
|------------------------------2----------------------------	|     
|-2--------------------------- 0---------------------------	| 
|-0--------------------------- 0---------------------------	| 
|-0---------------------------------------------------------	| 
 
|-----------------------------------------------------------	| 
|-----------------------------------------------------------	| 
|------------------------------4----------------------------	|    
|-2--------------------------- 2---------------------------	| 
|-0--------------------------- 2----------------------------| 
|-0-- - -- -- -- -- -----------------------------------------	| 
 
|-----------------------------------------------------------	| 
|-----------------------------------------------------------	| 
|-----------------------------4- 4- 4- 4- 4- 4- 4- 4------	|    
|-2-------------------------- 2- 2- 2- 2- 2- 2- 2- 2------	| 
|-0-------------------------- 2- 2- 2- 2- 2- 2- 2- 2------	| 
|-0- 0- 0- 0- 0- 0- 0-------------------------------------	| 
 
Isso ae, essa parte aqui repete 4x, até o fim da música, termina assim 
|------------------------------------------------------------	| 
|------------------------------------------------------------	| 
|------------------------------------------------------------	| 
|-------------------------------------------2---------------	| 
|-------------------------------------------2---------------	| 
|-------------------------------------------0---------------	| 
 
 
FIM 
 
 
_________________________________________________________________
Contribuição: Alessandra de Moura Piva([email protected])
		  

See also:

tabs Dream Theater - Silent Man tabs Rainbow - All Night Long tabs Slipknot - Before I Forget tabs Rainbow - Man On A Silver Mountain tabs Marilyn Manson - Coma White tabs Dream Theater - Through her eyes
e-chords

Other versions:

tabs Twisted Sister - We're Not Gonna Take It tabs Twisted Syster - Were not gonna take
auto scroll beats size up size down change color hide chords drawings
tab show chords e-chords YouTube Clip e-chords hide all tabs e-chords go to top tab

share