Slipknot

home > Slipknot

Til We Die Tab

Slipknot

Difficulty: BeginnerBeginner

by aleffederico

tuner correct add songbook print version text version save to e-mail
chordsukulelecavacokeyboardtabbassdrumsharmonicsflute Guitar Pro
chords

Til We Die

  		 Versos: (a única diferença é você o faz somente duas vezes para o último verso)  

e|------------------------|---------------------------| (x4) 
B|------------------------|---------------------------| 
G|------------------------|---------------------------| 
D|---444--444--444--444---|---222--222--222--222------| 
A|---444--444--444--444---|---222--222--222--222------| 
D|---444--444--444--444---|---222--222--222--222------| 

Refrão : (dependendo de que coro voçe pode até, voçe faz um jogo (x2), (x4) ou escuta a canção e o e sinta pra colar  
e|---------------------------------| 
B|---------------------------------| 
G|---------------------------------| 
D|---4-4444-9-7-6-7-6-4-2----------| 
A|---4-4444-9-7-6-7-6-4-2----------| 
D|---4-4444-9-7-6-7-6-4-2----------| 

Ponte: (Esta é a peça onde canta a versão nova da segunda metade do substitui o " Nós won' t seja we' esquecido; o ll nunca dá o in") " We' o ll nunca seja quebrado nós won' t seja negado… o " (… that' s uns 11 não 1' s)  

e|------------------------------| (x6) 
B|------------------------------| 
G|------------------------------| 
D|---6666-0-6-11-6-0-6-6-7------| 
A|---6666-0-6-11-6-0-6-6-7------| 
D|---6666-0-6-11-6-0-6-6-7------| 

e|------------------------------| (x1) 
B|------------------------------| 
G|------------------------------| 
D|---6666-0-6-9-7-6-7-6-2-------| 
A|---6666-0-6-9-7-6-7-6-2-------| 
D|---6666-0-6-9-7-6-7-6-2-------| 

Chorus. 

Outro: 
e|------------------------------| (x4) 
B|------------------------------| 
G|----------4-----4-------------| 
D|---4--------------------------| 
A|---4--------------------------| 
D|---4--------------------------| 
	  

Search Paypal
auto scroll beats size up size down change color hide chords drawings
tab show chords e-chords YouTube Clip e-chords hide all tabs e-chords go to top tab