Slipknot

home > Slipknot

Til We Die Bass Tab

Slipknot

Difficulty: nolevelnolevel

by fernsantana

tuner correct add songbook print version text version save to e-mail
chordsukulelecavacokeyboardtabbassdrumsharmonicsflute Guitar Pro
chords

Til We Die

  		

Intro 

E |------------------------------------------------------------| 
B |------------------------------------------------------------| 
F#|------------------------------------------------------------| 
B |-7-7--7-7--7-7--7-7--5-5--5-5--5-5--5-5---------------------|(x3) 

E |------------------------------------------------------------| 
B |------------------------------------------------------------| 
F#|------------------------------------------------------------| 
B |-7~--12-10-9-10-9-7-5~--7h9---------------------------------|(x4) 

Verse 

E |------------------------------------------------------------| 
B |------------------------------------------------------------| 
F#|------------------------------------------------------------| 
B |-7~--7-5-7-7~--7-5-7-5~--5-0-5-5~--5-0-5--------------------|(x4) 

Chorus 

E |------------------------------------------------------------| 
B |------------------------------------------------------------| 
F#|------------------------------------------------------------| 
B |-7~--12-10-9-10-9-7-5~--7h9---------------------------------|(x2) 

Verse 

E |------------------------------------------------------------| 
B |------------------------------------------------------------| 
F#|------------------------------------------------------------| 
B |-7~--7-5-7-7~--7-5-7-5~--5-0-5-5~--5-0-5--------------------|(x4) 

Chorus 

E |------------------------------------------------------------| 
B |------------------------------------------------------------| 
F#|------------------------------------------------------------| 
B |-7~--12-10-9-10-9-7-5~--7h9---------------------------------|(x4) 

Bridge 

E |------------------------------------------------------------| 
B |------------------------------------------------------------| 
F#|---------------7--------------------------------------------| 
B |-9-9-9-9-4-9-|---9-7-9-9-10-|-9-9-9-9-4-9-|-12-10-9-10-9-7--| 

Chorus 

E |------------------------------------------------------------| 
B |------------------------------------------------------------| 
F#|------------------------------------------------------------| 
B |-7~--12-10-9-10-9-7-5~--7h9---------------------------------|(x2) 

Verse 

E |------------------------------------------------------------| 
B |------------------------------------------------------------| 
F#|------------------------------------------------------------| 
B |-7~--7-5-7-7~--7-5-7-5~--5-0-5-5~--5-0-5--------------------|(x2) 

Chorus 

E |------------------------------------------------------------| 
B |------------------------------------------------------------| 
F#|------------------------------------------------------------| 
B |-7~--12-10-9-10-9-7-5~--7h9---------------------------------|(x8) 

Solo 

E |------------------------------------------------------------| 
B |------------------------------------------------------------| 
F#|---------------7--------------------------------------------| 
B |-9-9-9-9-4-9-|---9-7-9-9-10-|-9-9-9-9-4-9-|-12-10-9-10-9-7--|(x4) 

Chorus 

E |-----------(x14)-------------|------------------------------| 
B |-----------------------------|------------------------------| 
F#|-----------------------------|------------------------------| 
B |-7~--12-10-9-10-9-7-5~--7h9--|-7----7~----7~----7~----------| 

The first 7 from the second bar is the end of the Chorus riff. 
The other three are those weird sounds made at the end of the song. 
	  

Search Paypal
auto scroll beats size up size down change color hide chords drawings
tab show chords e-chords YouTube Clip e-chords hide all tabs e-chords go to top tab