Avenged Sevenfold

Nightmare

Avenged Sevenfold

tabs Expert expert

by  UBIRBOMFIM

save to print version add songbook text version e-mail correct tuner
chordsukulelecavacokeyboardtabbassdrumsharmonicaflute Guitar Pro
close

there isn't a video lesson for this song

chords

Nightmare

	  		(intro com lira) 

e|---------------------------------| 
B|---10-9-8------------10-9-8------| 
G|-7--------10-7-----7--------10---| (2x) 
D|---------------------------------| 
A|---------------------------------| 
D|---------------------------------| 

e|----------------------------------------------| 
B|-------------------------------8-11-10-8-10---| 
G|---10-9-7-----10-9-7------9-10----------------| 
D|-8----------9----------10---------------------| 
A|----------------------------------------------| 
D|----------------------------------------------| 

Obs.: A partir daqui a música toda leva distorção 

(intro com guitarra) 
e|---------------------------------------------------| 
B|-------10-10-9-9-8-8---------------------8-10-11---| 
G|--/7-7---------------10-7----7~------7-8-----------| (3x) 
D|--------------------------10-------8---------------| 
A|---------------------------------------------------| 
D|---------------------------------------------------| 

e|-------------------------------12~---| 
B|-11~--11-10-9-8--15-13~--13-15-------| 
G|-------------------------------------| 
D|-------------------------------------| 
A|-------------------------------------| 
D|-------------------------------------| 

e|------------------------------------------------------| 
B|------------------------------------------------------| 
G|------------------------------------------------------| 
D|------------------------------------------------------| 
A|------------------------------------------------------| 
D|--0-0-0-0-0-0-0-0-0-0-0-0-0-0-0-0-0-0-0-0-0-0-0-/12~~-| 
 P.M........................................... 

e|--------------------------------------------------------------------------------------| 
B|--------------------------------------------------------------------------------------| 
G|--------------------------------------------------------------------------------------| 
D|----3~~---0----------------------3~~---0--------------------3~~---0-------------------| 
A|----3~~---0----------------------3~~---0--------------------3~~---0-------------------| 
D|----3~~---0-----0-0-0-0-0-0------3~~---0-----0-0-0-0-0-0----3~~---0----0-0-0-0-0-0----| 
              P.M............              P.M............           P.M............ 

e|------------------------------| 
B|------------------------------| 
G|------------------------------| (2x) 
D|------------------------------| 
A|------------------------------| 
D|----6--3--5--3--6--3--5--3----| 


e|--------------------------------------------------------------------------------------| 
B|--------------------------------------------------------------------------------------| 
G|--------------------------------------------------------------------------------------| 
D|----3~~---0----------------------3~~---0--------------------3~~---0-------------------| 
A|----3~~---0----------------------3~~---0--------------------3~~---0-------------------| 
D|----3~~---0-----0-0-0-0-0-0------3~~---0-----0-0-0-0-0-0----3~~---0----0-0-0-0-0-0----| 
              P.M............              P.M............           P.M............ 

e|------------------------------| 
B|------------------------------| 
G|------------------------------| (3x) 
D|------------------------------| 
A|------------------------------| 
D|----6--3--5--3--6--3--5--3----| 

Refrão: 
e|----------------------------------------------------|           e|--------------------------| 
B|----------------------------------------------------|           B|--------------------------| 
G|----------------------------------------------------|  (2x)     G|--------------------------| 
D|--0--0------3--3-----3--3------1--1-----------------|           D|--7-------7-------7-7-----| 
A|--0--0------5--5-----3--3------3--3-----------------|           A|--7-------7-------7-7-----| 
D|--0--0---------------3--3---------------------------|           D|--7--7-7--7--7-7--7-7-----| 
                                                                     P.M....  P.M... 

e|------------------------------------------------------| 
B|------------------------------------------------------| 
G|------------------------------------------------------| 
D|------------------------------------------------------| 
A|------------------------------------------------------| 
D|--0-0-0-0-0-0-0-0-0-0-0-0-0-0-0-0-0-0-0-0-0-0-0-/12~~-| 
 P.M........................................... 

e|--------------------------------------------------------------------------------------| 
B|--------------------------------------------------------------------------------------| 
G|--------------------------------------------------------------------------------------| 
D|----3~~---0----------------------3~~---0--------------------3~~---0-------------------| 
A|----3~~---0----------------------3~~---0--------------------3~~---0-------------------| 
D|----3~~---0-----0-0-0-0-0-0------3~~---0-----0-0-0-0-0-0----3~~---0----0-0-0-0-0-0----| 
              P.M............              P.M............           P.M............ 

e|------------------------------| 
B|------------------------------| 
G|------------------------------| (3x) 
D|------------------------------| 
A|------------------------------| 
D|----6--3--5--3--6--3--5--3----| 

e|--------------------------------------------------------------------------------------| 
B|--------------------------------------------------------------------------------------| 
G|--------------------------------------------------------------------------------------| 
D|----3~~---0----------------------3~~---0--------------------3~~---0-------------------| 
A|----3~~---0----------------------3~~---0--------------------3~~---0-------------------| 
D|----3~~---0-----0-0-0-0-0-0------3~~---0-----0-0-0-0-0-0----3~~---0----0-0-0-0-0-0----| 
              P.M............              P.M............           P.M............ 

e|------------------------------| 
B|------------------------------| 
G|------------------------------| (3x) 
D|------------------------------| 
A|------------------------------| 
D|----6--3--5--3--6--3--5--3----| 

e|--------------------------------------| 
B|--------------------------------------| 
G|---7--6--5---------------7--6--4------| 
D|-------------8---5----------------8---| 
A|--------------------------------------| 
D|--------------------------------------| 

e|------------------------------| 
B|------------------------------| 
G|------------------------------| (3x) 
D|------------------------------| 
A|------------------------------| 
D|----6--3--5--3--6--3--5--3----| 

Refrão: 
e|----------------------------------------------------|             e|--------------------------| 
B|----------------------------------------------------|             B|--------------------------| 
G|----------------------------------------------------|  (4x)       G|--------------------------| 
D|--0--0------3--3-----3--3------1--1-----------------|             D|--7-------7-------7--7----| 
A|--0--0------5--5-----3--3------3--3-----------------|             A|--7-------7-------7--7----| 
D|--0--0---------------3--3---------------------------|             D|--7--7-7--7--7-7--7--7----| 
                                                                        P.M...  P.M... 

Solo: 
e|--/17-17-16-16-15-15-13-----------------------------| 
B|-----------------------15---------------15--17/18---| 
G|---------------------------------13--16-------------| 
D|--------------------------12--15--------------------| 
A|----------------------------------------------------| 
D|----------------------------------------------------| 

e|-/17-17-16-16-15-15-13------------------------------| 
B|-----------------------15----15--------------15-17--| 
G|--------------------------14-----------13-16--------| 
D|--------------------------------12--15--------------| 
A|----------------------------------------------------| 
D|----------------------------------------------------| 

e|----------------------------------------------------| 
B|------------------13/15--15--13--13h15/17-----------| 
G|--15~~~-14-13-12~-----------------------------------| 
D|----------------------------------------------------| 
A|----------------------------------------------------| 
D|----------------------------------------------------| 

e|-17-----------------13-14-15--16-------------------12-13-14--15-| 
B|------------14-15-16----------------------13-14-15--------------| 
G|----14-15-16---------------------13-14-15-----------------------| 
D|----------------------------------------------------------------| 
A|----------------------------------------------------------------| 
D|----------------------------------------------------------------| 

e|-15^17~--13---17p13-------------17p13---------------| 
B|--------------------15-14-------------15------------| 
G|-------------------------15-14-----------14---------| 
D|--------------------------------------------15------| 
A|----------------------------------------------------| 
D|----------------------------------------------------| 

e|---------------------13--17-18-17---15~^17v15----13--12-13-15-15^17-| 
B|------------------15--------------------------15--------------------| 
G|-------14-15-14-----------------------------------------------------| 
D|12--15--------------------------------------------------------------| 
A|--------------------------------------------------------------------| 
D|--------------------------------------------------------------------| 

e|--------------------------------------------------------------------| 
B|--15picking/19-13picking/17-12picking/15-10---12-13-12-10-8-10------| 
G|--------------------------------------------------------------------| 
D|--------------------------------------------------------------------| 
A|--------------------------------------------------------------------| 
D|--------------------------------------------------------------------| 

e|-----------------------------------------12-13-15///24\\\15-15-14-12---------------------| 
B|---------------------------------12-13-15---------------------------15-14-12-14-12--15-14| 
G|-------------------------12-14-15-------------------------------------------------14-----| 
D|----------------12-14-15-----------------------------------------------------------------| 
A|--------12-14-15-------------------------------------------------------------------------| 
D|12-14-15---------------------------------------------------------------------------------| 

e|------------------------17-------------------------------------18-17---------------------| 
B|15---141414151515161616-----1515141514151413---17171818191920----------------------------| 
G|-----------------------------------------------------------------------------------------| 
D|----------------------------------------------------------------------7-6h7p6\\5---------| 
A|--------------------------------------------------------------------------------8p5\3/5~~| 
D|-----------------------------------------------------------------------------------------| 

e|--------------------| 
B|--------------------| 
G|--------------------| 
D|--0-----0-----0-----| 
A|--0-----0-----0-----| 
D|--0-0-0-0-0-0-0-0---| 
   P.M...P.M... 

e|------------------------------------------15-14-12-12/18-18-18-17---------------------| 
B|--------------------------15-14-12-1214-15--------------------------------------------| 
G|---------15-14-12-12-14-15------------------------------------------------------------| 
D|-12-14-15---------------------------------------------------------7-6h7p6\\5----------| 
A|----------------------------------------------------------------------------8p5\3/5~~~| 
D|--------------------------------------------------------------------------------------| 

e|--------------------| 
B|--------------------| 
G|--------------------| (várias vezes) 
D|--0-----0-----0-----| 
A|--0-----0-----0-----| 
D|--0-0-0-0-0-0-0-0---| 
   P.M...P.M... 

e|------------| 
B|------------| 
G|------------| 
D|-3----5-----|(3x) 
A|-1----3-----| 
D|------------| 

e|-------------| 
B|-------------| 
G|-------------| 
D|-7----7------| 
A|-5----6------| 
D|------4------| 

e|------------------------------------------------------| 
B|------------------------------------------------------| 
G|------------------------------------------------------| 
D|------------------------------------------------------| 
A|------------------------------------------------------| 
D|--0-0-0-0-0-0-0-0-0-0-0-0-0-0-0-0-0-0-0-0-0-0-0-/12~~-| 
 P.M........................................... 

(refrão) 

e|----------------------------------------------------|             e|--------------------------| 
B|----------------------------------------------------|             B|--------------------------| 
G|----------------------------------------------------|  (4x)       G|--------------------------| 
D|--0--0------3--3-----3--3------1--1-----------------|             D|--7-------7-------7--7----| 
A|--0--0------5--5-----3--3------3--3-----------------|             A|--7-------7-------7--7----| 
D|--0--0---------------3--3---------------------------|             D|--7--7-7--7--7-7--7--7----| 
                                                                        P.M...  P.M... 
		  

See also:

tabs Twisted Syster - Were not gonna take tabs Slipknot - Duality tabs Slipknot - Duality(ver 2) tabs Alice Cooper - No More Mr. Nice Guy tabs Marilyn Manson - Sweet Dreams (complete) tabs Slipknot - Vermilion (Part 2)
e-chords

Other versions:

tabs Surf Curse - Nightmare tabs Pat Green - Nightmare tabs Pillows - Nightmare tabs Avenged Sevenfold - Nightmare tabs Set It Off - Nightmare tabs Eleventyseven - Nightmare
auto scroll beats size up size down change color hide chords drawings
tab show chords e-chords YouTube Clip e-chords hide all tabs e-chords go to top tab

share