Title Fight

You Can't Say Kingston Doesnt Love You

Title Fight

tabs

by  LUCICAMARGO

save to print version add songbook text version e-mail correct tuner
chordsukulelecavacokeyboardtabbassdrumsharmonicaflute Guitar Pro
close

there isn't a video lesson for this song

chords

You Can't Say Kingston Doesnt Love You

	  		
Intro 

               bass-riff 
e|--------------------------------------------------| 
B|--------------------------------------------------| 
G|--------------------------------------5-5-5-------| 
D|-x-3-3-3-3-3--------------7-7-7-7-7-7-5-5-5-5-5-5-| 
A|-x-3-3-3-3-3--------------7-7-7-7-7-7-3-3-3-5-5-5-| 
E|-x-1-1-1-1-1--------------5-5-5-5-5-5-------3-3-3-| 


Verse  

e|-------------------------------------------------| 
B|-------------------------------------------------| 
G|-------------------------------------5-5-5-7-7-7-| 
D|-3-3-3-3-3-3-3-3-3-3-3-3-7-7-7-7-7-7-5-5-5-7-7-7-| 
A|-3-3-3-3-3-3-3-3-3-3-3-3-7-7-7-7-7-7-3-3-3-5-5-5-| 
E|-1-1-1-1-1-1-1-1-1-1-1-1-5-5-5-5-5-5-------------| 
                                                       x2 
e|-------------------------------------------------| 
B|-------------------------------------------------| 
G|-------------------------------------------------| 
D|-3-3-3-3-3-3-3-3-3-3-3-3-5-5-5-7-7-7-2-2-2-5-5-5-| 
A|-3-3-3-3-3-3-3-3-3-3-3-3-5-5-5-7-7-7-2-2-2-5-5-5-| 
E|-1-1-1-1-1-1-1-1-1-1-1-1-3-3-3-5-5-5-0-0-0-3-3-3-| 


Bridge 

Guitar 1 

e|------------------------------------------------------| 
B|------------------------------------------------------| 
G|------------------------------------------------------| 
D|-3-33-------------------------7-7-7-7-7-7-5-5-5-5-5-5-| 
A|-3-33-3-3-3-3-3-3-3-3-3-3-3/5-7-7-7-7-7-7-5-5-5-5-5-5-| 
E|-1-11-1-1-1-1-1-1-1-1-1-1-1/3-5-5-5-5-5-5-3-3-3-3-3-3-| 
PM      . . . . . . . . . .  

e|------------------------------------------------------| 
B|------------------------------------------------------| 
G|----------------------------------5---7-7-7-7-7-7-7-7-| 
D|-3-33-------------------------7-7-5-5-7-7-7-7-7-7-7-7-| 
A|-3-33-3-3-3-3-3-3-3-3-3-3-3/5-7-7-3-5-5-5-5-5-5-5-5-5-| 
E|-1-11-1-1-1-1-1-1-1-1-1-1-1/3-5-5---3-----------------| 
PM      . . . . . . . . . . 

Guitar 2 

e|-3h5p3-0-0-0---0-0-0-0-0-0-0-0------0-------| 
B|-------5-5-5br-5-5-5-5-5-5-3/1----1---1---1-| 
G|-------------------------------2-2-----0-0--| 
D|--------------------------------------------| 
A|--------------------------------------------| 
E|--------------------------------------------| 

e|-3h5p3-0-0-0---0-0-0-0-0-0-0-0------0----3---| 
B|-------5-5-5br-5-5-5-5-5-5-3/1------1----1---| 
G|-------------------------------2--2-2--0-0---| 
D|---------------------------------------------| 
A|---------------------------------------------| 
E|---------------------------------------------| 


Verse  

e|-------------------------------------------------| 
B|-------------------------------------------------| 
G|-------------------------------------5-5-5-7-7-7-| 
D|-3-3-3-3-3-3-3-3-3-3-3-3-7-7-7-7-7-7-5-5-5-7-7-7-| 
A|-3-3-3-3-3-3-3-3-3-3-3-3-7-7-7-7-7-7-3-3-3-5-5-5-| 
E|-1-1-1-1-1-1-1-1-1-1-1-1-5-5-5-5-5-5-------------| 

e|-------------------------------------------------| 
B|-------------------------------------------------| 
G|-------------------------------------------------| 
D|-3-3-3-3-3-3-3-3-3-3-3-3-5-5-5-7-7-7-2-2-2-5-5-5-| 
A|-3-3-3-3-3-3-3-3-3-3-3-3-5-5-5-7-7-7-2-2-2-5-5-5-| 
E|-1-1-1-1-1-1-1-1-1-1-1-1-3-3-3-5-5-5-0-0-0-3-3-3-| 


Chorus 

e|-------------------------------------------------| 
B|-------------------------------------------------| 
G|-------------7-7-7-7-7-7-------------5-5-5-5-5-5-| 
D|-3-3-3-3-3-3-7-7-7-7-7-7-7-7-7-7-7-7-5-5-5-5-5-5-| x4 
A|-3-3-3-3-3-3-5-5-5-5-5-5-7-7-7-7-7-7-3-3-3-3-3-3-| 
E|-1-1-1-1-1-1-------------5-5-5-5-5-5-------------| 


Bridge  

Guitar 1 

e|------------------------------------------------------| 
B|------------------------------------------------------| 
G|------------------------------------------------------| 
D|-3-33-------------------------7-7-7-7-7-7-5-5-5-5-5-5-| 
A|-3-33-3-3-3-3-3-3-3-3-3-3-3/5-7-7-7-7-7-7-5-5-5-5-5-5-| 
E|-1-11-1-1-1-1-1-1-1-1-1-1-1/3-5-5-5-5-5-5-3-3-3-3-3-3-| 
Pm      . . . . . . . . . .  

e|------------------------------------------------------| 
B|------------------------------------------------------| 
G|----------------------------------5---7-7-7-7-7-7-7-7-| 
D|-3-33-------------------------7-7-5-5-7-7-7-7-7-7-7-7-| 
A|-3-33-3-3-3-3-3-3-3-3-3-3-3/5-7-7-3-5-5-5-5-5-5-5-5-5-| 
E|-1-11-1-1-1-1-1-1-1-1-1-1-1/3-5-5---3-----------------| 
PM      . . . . . . . . . . 

Guitar 2 

e|-3h5p3-0-0-0---0-0-0-0-0-0-0-0------0-------| 
B|-------5-5-5br-5-5-5-5-5-5-3/1----1---1---1-| 
G|-------------------------------2-2-----0-0--| 
D|--------------------------------------------| 
A|--------------------------------------------| 
E|--------------------------------------------| 

e|-3h5p3-0-0-0---0-0-0-0-0-0-0-0------0----3---| 
B|-------5-5-5br-5-5-5-5-5-5-3/1------1----1---| 
G|-------------------------------2--2-2--0-0---| 
D|---------------------------------------------| 
A|---------------------------------------------| 
E|---------------------------------------------| 


Guitar 1 

e|------------------------------------------------------| 
B|------------------------------------------------------| 
G|------------------------------------------------------| 
D|-3-33-------------------------7-7-7-7-7-7-5-5-5-5-5-5-| 
A|-3-33-3-3-3-3-3-3-3-3-3-3-3/5-7-7-7-7-7-7-5-5-5-5-5-5-| 
E|-1-11-1-1-1-1-1-1-1-1-1-1-1/3-5-5-5-5-5-5-3-3-3-3-3-3-| 
PM      . . . . . . . . . .  

e|------------------------------------------------------| 
B|------------------------------------------------------| 
G|----------------------------------5---7-7-7-7-7-7-7-7-| 
D|-3-33-------------------------7-7-5-5-7-7-7-7-7-7-7-7-| 
A|-3-33-3-3-3-3-3-3-3-3-3-3-3/5-7-7-3-5-5-5-5-5-5-5-5-5-| 
E|-1-11-1-1-1-1-1-1-1-1-1-1-1/3-5-5---3-----------------| 
PM      . . . . . . . . . . 

Guitar 2 

e|-3h5p3-0-0-0---0-0-0-0-0-0-0-0------0-------| 
B|-------5-5-5br-5-5-5-5-5-5-3/1----1---1---1-| 
G|-------------------------------2-2-----0-0--| 
D|--------------------------------------------| 
A|--------------------------------------------| 
E|--------------------------------------------| 

e|-3h5p3-0-0-0---0-0-0-0-0-0-0-0------0----3---| 
B|-------5-5-5br-5-5-5-5-5-5-3/1------1----1---| 
G|-------------------------------2--2-2--0-0---| 
D|---------------------------------------------| 
A|---------------------------------------------| 
E|---------------------------------------------| 


Chorus   

e|-------------------------------------------------| 
B|-------------------------------------------------| 
G|-------------7-7-7-7-7-7-------------5-5-5-5-5-5-| 
D|-3-3-3-3-3-3-7-7-7-7-7-7-7-7-7-7-7-7-5-5-5-5-5-5-| x4 
A|-3-3-3-3-3-3-5-5-5-5-5-5-7-7-7-7-7-7-3-3-3-3-3-3-| 
E|-1-1-1-1-1-1-------------5-5-5-5-5-5-------------| 


Outro 

e|-----------------------------------------------------| 
B|-----------------------------------------------------| 
G|-----------------------------------------------------| 
D|-3-3--3-3--3-3--5-5-5-3-3--3-3--3-3--5-5-5--3-3-3-3--| 
A|-3-3--3-3--3-3--5-5-5-3-3--3-3--3-3--5-5-5--3-3-3-3--| 
E|-1-1--1-1--1-1--3-3-3-1-1--1-1--1-1--3-3-3--1-1-1-1--| 



************************************ 

| x   Dead note 
| h   Hammer-on 
| p   Pull-off 
| br  Bend release 
| /   Slide up 
| .   Palm mute 

************************************ 
		  

auto scroll beats size up size down change color hide chords drawings
tab show chords e-chords YouTube Clip e-chords hide all tabs e-chords go to top tab

share