Title Fight

Liars Love

Title Fight

tabs

by  JESSGOMES

save to print version add songbook text version e-mail correct tuner
chordsukulelecavacokeyboardtabbassdrumsharmonicaflute Guitar Pro
close

there isn't a video lesson for this song

chords

Liars Love

	  		
Intro 

e|---------------------------------------------------------------------------| x4 
B|------0~----4-4-4-4-4-4-4-----0~----4-4-4-4-4-4-4-4------------------------| 
G|------0~----4-4-4-4-4-4-4-----0~----4-4-4-4-4-4-4-4------------------------| 
D|------2~----6-6-6-6-6-6-6-----2~----6-6-6-6-6-6-6-6------------------------| 
A|------3~----6-6-6-6-6-6-6-----3~----6-6-6-6-6-6-6-6------------------------| 
E|--0-0-------4-4-4-4-4-4-4-0-0-------4-4-4-4-4-4-4-4------------------------| 

Verse 
e|--0-0-0-0-0-0-0-0--0-0-0-9-9-9-9-9--0-0-0-0-0-0-0-0--0-0-0-9-9-9-9-9-------| x2 
B|--0-0-0-0-0-0-0-0--0-0-0-0-0-8-8-8--0-0-0-0-0-0-0-0--0-0-0-0-0-8-8-8-------| 
G|--6-6-6-6-6-6-6-6--8-8-8-8-8-8-8-8--6-6-6-6-6-6-6-6--8-8-8-8-8-8-8-8-------| 
D|--7-7-7-7-7-7-7-7--9-9-9-9-9-9-9-9--7-7-7-7-7-7-7-7--9-9-9-9-9-9-9-9-------| 
A|--4-4-4-4-4-4-4-4--7-7-7-7-7-7-7-7--4-4-4-4-4-4-4-4--7-7-7-7-7-7-7-7-------| 
E|---------------------------------------------------------------------------| 


Chorus 
e|---------------------------------------------------------------------------| x4  
B|---------------------------------------------------------------------------| 
G|---------------------------------------------------------------------------| 
D|-----6~---6~---------------------------------------------------------------| 
A|--9~----9~--9~---6~---6~-------2~---2~-------------------------------------| 
E|--------------9~----9~--9/--4~----4~--4~4/-2~2~----------------------------| 

Play intro riff once 
Verse x2 
Chorus x4 

Outro 
e|--0-0-0-0-0-0-0-0-0-0-0-0-0-0-0-0-0-0-0-0-0-0-0-0-0-0-0-0-0-0--------------| x2 
B|--0-0-0-0-0-0-0-0-0-0-0-0-0-0-0-0-0-0-0-0-0-0-0-0-0-0-0-0-0-0--------------|  
G|--8-8-8-8-8-8-9-9-9-4-4-4-4-4-4-8-8-8-8-8-8-4-4-4-8-8-8-9-9-9--------------| those are 11's 
D|--9-9-9-9-9-9-11111-6-6-6-6-6-6-9-9-9-9-9-9-6-6-6-111111111111-------------| not 1's 
A|--7-7-7-7-7-7-11111-6-6-6-6-6-6-7-7-7-7-7-7-6-6-6-111111111111-------------| 
E|--0-0-0-0-0-0-------------------0-0-0-0-0-0--------------------------------| 

e|--0~--------------------|  
B|--0~--------------------| 
G|--8~--------------------| 
D|--9~-end-on-this-chord--| 
A|--7~--------------------| 
E|--0~--------------------| 



************************************ 

| /   slide up 
| \   slide down 
| h   hammer-on 
| p   pull-off 
| ~   vibrato 
| +   harmonic 
| x   Mute note 
| b   Bend 
| pb  Pre-bend 
| br  Bend release 
| pbr Pre-bend release 
| brb Bend release bend 

************************************ 
		  

auto scroll beats size up size down change color hide chords drawings
tab show chords e-chords YouTube Clip e-chords hide all tabs e-chords go to top tab

share