Thursday

This Side Of Brightness (ver. 2)

Thursday

tabs

save to print version add songbook text version e-mail correct tuner
chordsukulelecavacokeyboardtabbassdrumsharmonicaflute Guitar Pro
close

there isn't a video lesson for this song

chords

This Side Of Brightness (ver. 2)

	  		Thursday ? This Side Of Brightness 
 
 
X3	0:00-0:32 
|-3-0-2-2-0-0-0-0-2-2-0-0-0-0-2-2-0-0--3-0-2-2-0-0-0-0-2-2-0-0-0-0-2-2-0-0--| 
|-3-3-3-3-3-3-3-3-3-3-3-3-3-3-3-3-3-3--3-3-3-3-3-3-3-3-3-3-3-3-3-3-3-3-3-3--| 
|-0------------------------------------0------------------------------------| 
|-2------------------------------------2------------------------------------| 
|-3------------------------------------2------------------------------------| 
|---------------------------------------------------------------------------| 
 
x4	0:11-0:32 
|---------------------------------------------------------------------------| 
|----------5---10---8---7---5-----------------------------------------------| 
|--5---7--------------------------------------------------------------------| 
|---------------------------------------------------------------------------| 
|---------------------------------------------------------------------------| 
|---------------------------------------------------------------------------| 
 
x1	0:33-0:36 
|--3-0-2-2-0-0-2-2-0--------------------------------------------------------| 
|--3-3-3-3-3-3-3-3-3--------------------------------------------------------| 
|--0------------------------------------------------------------------------| 
|--2------------------------------------------------------------------------| 
|--3------------------------------------------------------------------------| 
|---------------------------------------------------------------------------| 
 
x1	0:33-0:36 
|---------------------------------------------------------------------------| 
|----------5---10---8---7~--------------------------------------------------| 
|--5---7--------------------------------------------------------------------| 
|---------------------------------------------------------------------------| 
|---------------------------------------------------------------------------| 
|---------------------------------------------------------------------------| 
 
x4	0:37-0:57 
|--3-3---3-3-3---3-3-3---3-3-3---3-3-3---3-3-3---3-3-3-3---3-3-3------------| 
|--3-3---3-3-3---3-3-3---3-3-3---3-3-3---3-3-3---3-3-3-3---3-3-3------------| 
|--0-0---0-0-0---0-0-0---0-0-0---0-0-0---0-0-0---0-0-0-0---0-0-0------------| 
|--2-2---2-2-2---2-2-2---2-2-2---2-2-2---2-2-2---2-2-2-2---0-0-0------------| 
|--3-3---3-3-3---3-3-3---3-3-3---3-2-2---2-2-2---2-2-2-2---2-2-2------------| 
|----------------------------------------------------------3-3-3------------| 
									          . . .  
x3	0:58-1:28 
|---3-3-3-3-3-3-3-3----3-3-3-3-3-3-3-3----3-3-3-3-3-3-3-3-3-3-3-3-3-3-3-3----| 
|---3-3-3-3-3-3-3-3----3-3-3-3-3-3-3-3----3-3-3-3-3-3-3-3-3-3-3-3-3-3-3-3----| 
|---0-0-0-0-0-0-0-0----0-0-0-0-0-0-0-0----0-0-0-0-0-0-0-0-0-0-0-0-0-0-0-0----| 
|---2---------2---2----2---------2---2----0---------0---0-0---------0---0----| 
|---3---------3---3----2---------2---2----2---------2---2-2---------2---2----| 
|-----------------------------------------3---------3---3-3---------3---3----| 
 
 
x4	1:28-1:49 
|--3-3---3-3-3---3-3-3---3-3-3---3-3-3---3-3-3---3-3-3-3---3-3-3------------| 
|--3-3---3-3-3---3-3-3---3-3-3---3-3-3---3-3-3---3-3-3-3---3-3-3------------| 
|--0-0---0-0-0---0-0-0---0-0-0---0-0-0---0-0-0---0-0-0-0---0-0-0------------| 
|--2-2---2-2-2---2-2-2---2-2-2---2-2-2---2-2-2---2-2-2-2---0-0-0------------| 
|--3-3---3-3-3---3-3-3---3-3-3---3-2-2---2-2-2---2-2-2-2---2-2-2------------| 
|----------------------------------------------------------3-3-3------------| 
					         
x2	1:49-2:10 
|---3-3-3-3-3-3-3-3----3-3-3-3-3-3-3-3----3-3-3-3-3-3-3-3-3-3-3-3-3-3-3-3---| 
|---3-3-3-3-3-3-3-3----3-3-3-3-3-3-3-3----3-3-3-3-3-3-3-3-3-3-3-3-3-3-3-3---| 
|---0-0-0-0-0-0-0-0----0-0-0-0-0-0-0-0----0-0-0-0-0-0-0-0-0-0-0-0-0-0-0-0---| 
|---2---------2---2----2---------2---2----0---------0---0-0---------0---0---| 
|---3---------3---3----2---------2---2----2---------2---2-2---------2---2---| 
|-----------------------------------------3---------3---3-3---------3---3---| 
 
x4	2:10-2:29 
|---3-3-3-3-3------3-3-3-3-3------------------------------------------------| 
|---3-3-3-3-3------3-3-3-3-3------------------------------------------------| 
|---0-0-0-0-0------0-0-0-0-0------------------------------------------------| 
|---2-2-2-2-2------2-2-2-2-2------------------------------------------------| 
|---3-3-3-3-3------2-2-2-2-2------------------------------------------------| 
|---------------------------------------------------------------------------| 
 
x3	2:12-2:18 
|---5-----------------------------------------------------------------------| 
|-------8---7-------8-------------------------------------------------------| 
|---------------7-----------------------------------------------------------| 
|---------------------------------------------------------------------------| 
|---------------------------------------------------------------------------| 
|---------------------------------------------------------------------------| 
 
x32	2:20-2:40 
|---5-----------------------------------------------------------------------| 
|------8--7-----------------------------------------------------------------| 
|------------7--------------------------------------------------------------| 
|---------------------------------------------------------------------------| 
|---------------------------------------------------------------------------| 
|---------------------------------------------------------------------------| 
 
x4	2:30-2:48 
|--3-3-3-3-3-3-3-3-3-3-3-3-3-3---3-3-3-3-3-3-3-3-3-3-3-3-3-3----------------| 
|--3-3-3-3-3-3-3-3-3-3-3-3-3-3---3-3-3-3-3-3-3-3-3-3-3-3-3-3----------------| 
|--0-0-0-0-0-0-0-0-0-0-0-0-0-0---0-0-0-0-0-0-0-0-0-0-0-0-0-0----------------| 
|--2-2-2-2-2-2-2-2-2-2-2-2-2-2---2-2-2-2-2-2-2-2-2-2-2-2-2-2----------------| 
|--3-3-3-3-3-3-3-3-3-3-3-3-3-3---2-2-2-2-2-2-2-2-2-2-2-2-2-2----------------| 
|---------------------------------------------------------------------------| 
   . .   . .   . .   . .   . .   . .   . .   . .   . .   . .              
 
x8	2:49-3:30 
|--3-3---3-3-3---3-3-3---3-3-3---3-3-3---3-3-3---3-3-3-3---3-3-3------------| 
|--3-3---3-3-3---3-3-3---3-3-3---3-3-3---3-3-3---3-3-3-3---3-3-3------------| 
|--0-0---0-0-0---0-0-0---0-0-0---0-0-0---0-0-0---0-0-0-0---0-0-0------------| 
|--2-2---2-2-2---2-2-2---2-2-2---2-2-2---2-2-2---2-2-2-2---0-0-0------------| 
|--3-3---3-3-3---3-3-3---3-3-3---3-2-2---2-2-2---2-2-2-2---2-2-2------------| 
|----------------------------------------------------------3-3-3------------| 
									          . . .  
x1	3:10-3:30 
|---------------------------------------------------------------------------| 
|---------------------------------------------------------------------------| 
|--12-12-12-12-12-12--14--17--9-9-9-9--7-7-7-7------------------------------| 
|---------------------------------------------------------------------------| 
|--10-10-10-10-10-10--12--15--7-7-7-7--5-5-5-5------------------------------| 
|---------------------------------------------------------------------------| 
 
|---------------------------------------------------------------------------| 
|---------------------------------------------------------------------------| 
|--12-12-12-12-12-12--14--17--16-16-16-16-16-16/17/16-----------------------| 
|---------------------------------------------------------------------------| 
|--10-10-10-10-10-10--12--15--14-14-14-14-14-14/15/14-----------------------| 
|---------------------------------------------------------------------------| 
 
|---------------------------------------------------------------------------| 
|---------------------------------------------------------------------------| 
|--12-12-12-12-12-12--14--17--16-16-16-16-17/16/17/16-----------------------| 
|---------------------------------------------------------------------------| 
|--10-10-10-10-10-10--12--15--14-14-14-14-15/14/15/14-----------------------| 
|---------------------------------------------------------------------------| 
 
|---------------------------------------------------------------------------| 
|---------------------------------------------------------------------------| 
|--12-12-12-12-12-12--14--17--9-9-9-9-9-9-9-9-------------------------------| 
|---------------------------------------------------------------------------| 
|--10-10-10-10-10-10--12--15--7-7-7-7-7-7-7-7-------------------------------| 
|---------------------------------------------------------------------------| 
 
 
enjoy! any questions or comments? email me at [email protected] or AIM: redakk 
 

		  

See also:

tabs The Doors - People Are Strange tabs The Offspring - The Kids Aren't Alright tabs Jack Johnson - Upside down tabs Guns N' Roses - November Rain (Ver. Acoustic) tabs Jack Johnson - Banana Pancakes (ver. 3) tabs Guns N' Roses - You Could Be Mine
e-chords

Other versions:

tabs Thursday - This Side Of Brightness tabs Thursday - This Side Of Brightness (ver. 2)
auto scroll beats size up size down change color hide chords drawings
tab show chords e-chords YouTube Clip e-chords hide all tabs e-chords go to top tab

share