The Wonder Years

home > The Wonder Years

Dynamite Shovel Tab

The Wonder Years

Difficulty: nolevelnolevel

by tamamoreira

tuner correct add songbook print version text version save to e-mail
chordsukulelecavacokeyboardtabbassdrumsharmonicsflute Guitar Pro
chords

Dynamite Shovel

  		


(0:00) 
                                             
e|-------------------|------------------------| 
B|-------------------|------------------------| 
G|-666-8s10-8-6666-8-|-666-8s10-13131313-1110-| 
D|-666-8s10-8-6666-8-|-666-8s10-13131313-1110-| 
A|-444-6s8--6-4444-6-|-444-6s8--11111111-9-8--| 
E|-------------------|------------------------| 

                                  (11's & 13's) 
(0:05) 
                                                   
e|-------------------|------------------------------| 
B|-------------------|------------------------------| 
G|-666-8s10-8-6666-8-|-13131313-11111111-1010101010-| 
D|-666-8s10-8-6666-8-|-13131313-11111111-1010101010-| 
A|-444-6s8--6-4444-6-|-11111111-9-9-9-9--8-8-8-8-8--| 
E|-------------------|------------------------------| 


(0:10) 
                                         
e|-------------------|-------------------------| 
B|-------------------|-------------------------| 
G|-66----------------|-66666666-66666666-------| 
D|-66----------------|-66666666-66666666-------| 
A|-44(x8)------------|-xxxxxxxx-xxxxxxxx-------| 
E|---(16 strums)-----|-44444444-66666666-------| 


(0:14) 
                                            
e|----------------------|-------------------------| 
B|----------------------|-------------------------| 
G|-66666666---10--8---6-|-66666666-66666666-------| 
D|-66666666---10--8---6-|-66666666-66666666-------| 
A|-44444444---8---6---4-|-xxxxxxxx-xxxxxxxx-------| 
E|----------------------|-44444444-66666666-------| 


(0:19) 
                                         
e|-------------------|-------------------------| 
B|-------------------|-------------------------| 
G|-66----------------|-66666666-66666666-------| 
D|-66----------------|-66666666-66666666-------| 
A|-44(x8)------------|-xxxxxxxx-xxxxxxxx-------| 
E|---(16 strums)-----|-44444444-66666666-------| 


(0:24) 
                                         
e|-------------------|-------------------------| 
B|-------------------|-------------------------| 
G|-66----------------|-66666666-66666666-------| 
D|-66----------------|-66666666-66666666-------| 
A|-44(x8)------------|-xxxxxxxx-xxxxxxxx-------| 
E|---(16 strums)-----|-44444444-66666666-------| 


(0:28) 
                                                        
e|-----------------------------------------------------| 
B|-----------------------------------------------------| 
G|----------88888888-1010101010101010-13131313-1111111-| 
D|-44444444-88888888-1010101010101010-13131313-1111111-| 
A|-44444444-66666666-8-8-8-8-8-8-8-8--11111111-9-9-9-9-| 
E|-22222222--------------------------------------------| 


(0:32) 
                                              
e|--------------------------------------------| 
B|--------------------------------------------| 
G|-1010101010101010-88888888-6666666666666666-| 
D|-1010101010101010-88888888-6666666666666666-| 
A|-8-8-8-8-8-8-8-8--66666666-4444xxxx4444xxxx-| 
E|-------------------------------4444----4444-| 


(0:37) 
                                                      
e|----------------------------------------------------| 
B|----------------------------------------------------| 
G|-6---6---8-8-8-8--1010101010101010-13131313-1111111-| 
D|-6---6---8-8-8-8--1010101010101010-13131313-1111111-| 
A|-4---4---6-6-6-6--8-8-8-8-8-8-8-8--11111111-9-9-9-9-| 
E|----------------------------------------------------| 


(0:41) 
                                                           
e|----------------------------------------------------------| 
B|----------------------------------------------------------| 
G|-1010101010101010-88888888-6666666666666666---10---8---10-| 
D|-1010101010101010-88888888-6666666666666666---10---8---10-| 
A|-8-8-8-8-8-8-8-8--66666666-4444444444444444---8----6---8--| 
E|----------------------------------------------------------| 


(0:46) 
                                             
e|-------------------|------------------------| 
B|-------------------|------------------------| 
G|-666-8s10-8-6666-8-|-666-8s10-13131313-1110-| 
D|-666-8s10-8-6666-8-|-666-8s10-13131313-1110-| 
A|-444-6s8--6-4444-6-|-444-6s8--11111111-9-8--| 
E|-------------------|------------------------| 


(0:50) 
                                                   
e|-------------------|------------------------------| 
B|-------------------|------------------------------| 
G|-666-8s10-8-6666-8-|-13131313-11111111-1010101010-| 
D|-666-8s10-8-6666-8-|-13131313-11111111-1010101010-| 
A|-444-6s8--6-4444-6-|-11111111-9-9-9-9--8-8-8-8-8--| 
E|-------------------|------------------------------| 


(0:55) 
     
e|--------------------| 
B|--------------------| 
G|-6------------------| 
D|-6------------------| 
A|-4(let ring)--------| 
E|--------------------|  
	  

Search Paypal
auto scroll beats size up size down change color hide chords drawings
tab show chords e-chords YouTube Clip e-chords hide all tabs e-chords go to top tab