The White Stripes

home > The White Stripes

Seven Nation Army Tab

The White Stripes

Difficulty: nolevelnolevel

by iagovillareal

tuner correct add songbook print version text version save to e-mail
chordsukulelecavacokeyboardtabbassdrumsharmonicsflute Guitar Pro
chords

Seven Nation Army

	  
Intro: 

e|---------------------------|------- 
B|---------------------------|------- 
G|---------------------------|------- 
D|---------------------------|-(4x)-- 
A|---------------------------|------- 
E|-12--12--15--12--10--8--7~-|------- 


2- 


e|----------------------------------------------------------------| 
B|----------------------------------------------------------------| 
G|-9--12--11--9--9--12--14--12--12--12--14--12h14p12--11--9--12---| 
D|----------------------------------------------------------------| 
A|----------------------------------------------------------------| 
E|----------------------------------------------------------------| 


e|------------------------------------------------12--12--15--12--| 
B|----------------------------------------------------------------| 
G|-9--12--11--9--9--12--14--12--14--12h14p12--11------------------| 
D|----------------------------------------------------------------| 
A|----------------------------------------------------------------| 
E|----------------------------------------------------------------| 


e|-12--15--14--12--12--15--17--15--15--15h17P15--14--12--12-------| 
B|----------------------------------------------------------------| 
G|----------------------------------------------------------------| 
D|----------------------------------------------------------------| 
A|----------------------------------------------------------------| 
E|----------------------------------------------------------------| 



e|-12/14--12--15b17r15--14--12--12--12/14--12--12/14--12----------| 
B|--------------------------------------------------------13--12--| 
G|----------------------------------------------------------------| 
D|----------------------------------------------------------------| 
A|----------------------------------------------------------------| 
E|----------------------------------------------------------------| 


8x  

e|--3-|--5-|------------------------------------------------------| 
B|----|----|------------------------------------------------------| 
G|----|----|------------------------------------------------------| 
D|----|----|--9---9-----------------------------------------------| 
A|----|----|--7---7-----------------------------------------------| 
E|----|----|--0---0-----------------------------------------------| 
	  

there isn't a video lesson for this song

request
Search
auto scroll beats size up size down change color hide chords drawings
tab show chords e-chords YouTube Clip e-chords hide all tabs e-chords go to top tab