The Screaming Jets

Impossible

The Screaming Jets

tabs Intermediate intermediate

save to print version add songbook text version e-mail correct tuner
chordsukulelecavacokeyboardtabbassdrumsharmonicaflute Guitar Pro
close

there isn't a video lesson for this song

chords

Impossible

	  		Intro: 
e-----------------------------------------------------------| 
B------------------------------------------------------------| 
G---0h2---0---------------------------------------------| 
D-----------------0h2---0-------------------------------| 
A--------------------------------2----3-------------------| 
E-----------------------------------------------------------| 
 
Verse 
           C  Am  G   x 4 
 
Bit before chorus 
           D  G  D  G  D  G  F 
 
Chorus 
           C  E   F 
           C  E   F 
           C  E   F  G 
 
Bit after chorus 
 
e----0--0-------------------------------0--0----------------------------3--3--------------------------------------| 
B----1--1-------------------------------1--1----------------------------0--0--------------------------------------| 
G----0--0----0h2--0-----------------2--2---0h2--0--------------0--0---0h2--0------------------------| 
D----2--2-----------------2---0-------2--2----------------2--0-----0--0----------------0h2--0-----------| 
A----3--3-------------------------------0--0----------------------------2--2----------------------------2--3---| 
E---------------------------------------------------------------------------3--3-------------------------------------| 
 
 
Play the above 2 times then go up a step to 
 
Chorus 
	D  F#  G 
	D  F#  G 
	D  F#  G  A 
 
End on D 
 
Tabbed by Daniel Keene  [email protected] 
		  

Full key step upFull key step up
Half key step upHalf key step up
Half key step downHalf key step down
Full key step downFull key step down
hide glossary

See also:

tabs Spiderbait - Black Betty tabs Pete Murray - Tonic tabs Powderfinger - These Days tabs John Butler Trio - Life Ain't What It Seems tabs Xavier Rudd - Shelter tabs John Butler Trio - Peaches & Cream
e-chords

Other versions:

tabs The Screaming Jets - Impossible tabs Lacey Sturm - Impossible tabs The Kills - Impossible Tracks
auto scroll beats size up size down change color hide chords drawings
tab show chords e-chords YouTube Clip e-chords hide all tabs e-chords go to top tab

share