The Screaming Jets

October Grey (Capo 4th)

The Screaming Jets

tabs

save to print version add songbook text version e-mail correct tuner
chordsukulelecavacokeyboardtabbassdrumsharmonicaflute Guitar Pro
close

there isn't a video lesson for this song

chords

October Grey (Capo 4th)

	  		* : 
(tab no.s relative to capo). 
* there is a hammer on and a harmonic before this run which I haven't tabbed yet 
 
e ---7-p-5-p-0-5-p-3-0------------------------------------------ 
b --------------------5-p-3-0-3-p-1-0-------------------------- 
p ------------------------------------5-p-4-0-4-p-2-0-0-2------ 
p ------------------------------------------------------------- 
a ------------------------------------------------------------- 
e ------------------------------------------------------------- 
Am	Em 
it's been a while + I still remember  
	G			Am Em Am Em 
that smile u kept for me 
Am Em	 Am	  Em		Em Am 
lately I have missed u 
	Am	Em	   C	G	        Am	Em Am 
+ it hits me in the morning when I'm cold 
 
Chorus: 
C G	D		Am C 
I have nothing to say 
		Am Em	   Am  Em 
but I can't change a thing 
		Am Em	   Am  Em 
no I can't change a thing 
 
e --------------------------------------- 
b ---------------------------------------	listen to CD 
g ---5---9---7--------5---9---12---12---- 
d ---------------7----------------------- 
a ---3---7---5--------3---7---10---10---- 
e ---------------5----------------------- 
 
verse 2: 
(same strumming as verse 1:)tab numbers are actual fret numbers  
 
e --3-----------	-14-12-11---	------------------	-------------- 
b -----5--------	---------14-	-12---------------	-------------- 
g ---------11-b-	------------	----11-b-(11)-p-0-	--9-8-9-b------ 
d --------------	------------	------------------	-------------- 
a --------------	------------	------------------	-------------- 
e --------------	------------	------------------	-------------- 
 
e -----------12--------------	--------- 
b --------12----12-9---------	--------- 
g -9-11-b------------11-9-11-	--------- 
d ---------------------------	--------- 
a ---------------------------	--------- 
e ---------------------------	--------- 
 
solo: continued over page 
 
 
 
 
 
 
e ------9----------------	-12-p-9-9------------------- 
b --------9--12-p-9------	----------9-12-p-9-----9---- 
g -11-b----------------9-	---------------------------- 
d ------------------11---	--------------------11------ 
a -----------------------	---------------------------- 
e -----------------------	---------------------------- 
 
e -12-p-0-0-14-p-0-0--16--19--21-23-\----------------------- 
b --------------------------------------------------------- 
g --------------------------------------------9-11-9-11-b-- 
d -------------------------------------9-/-11-------------- 
a --------------------------------------------------------- 
e --------------------------------------------------------- 
 
verse 3: 
 
e --12-p-11----9----9-11---	--16-----------------	----------------- 
b ----------12---12------9-	----/-17----16-17----	----------------- 
g -------------------------	---------18----------	--11-p-9---9-\-8- 
d -------------------------	------------------18-	----------------- 
a -------------------------	---------------------	----------------- 
e -------------------------	---------------------	----------------- 
 
e -14-b-p-12-------14-b-12---------	---------	---------------- 
b -----------14-12---------12-14--	---------	---------12----- 
g --------------------------------	-9-h-11--	---------13----- 
d --------------------------------	---------	---------------- 
a --------------------------------	---------	---------------- 
e --------------------------------	---------	---------------- 
 
That's pretty much all the guitar Rock on!!! 
burgs 2004 
[email protected] 

		  

Full key step upFull key step up
Half key step upHalf key step up
Half key step downHalf key step down
Full key step downFull key step down
hide glossary

See also:

tabs Spiderbait - Black Betty tabs Pete Murray - Tonic tabs Powderfinger - These Days tabs John Butler Trio - Life Ain't What It Seems tabs Xavier Rudd - Shelter tabs John Butler Trio - Peaches & Cream
e-chords

Other versions:

tabs The Screaming Jets - October Grey (Capo 4th)
auto scroll beats size up size down change color hide chords drawings
tab show chords e-chords YouTube Clip e-chords hide all tabs e-chords go to top tab

share