The Screaming Jets

Sacrifice

The Screaming Jets

tabs Expert expert

save to print version add songbook text version e-mail correct tuner
chordsukulelecavacokeyboardtabbassdrumsharmonicaflute Guitar Pro
close

there isn't a video lesson for this song

chords

Sacrifice

(Woseen/ Walmesly/ Gleeson)

	  		Australia 
"SACRIFICE" - THE SCREAMING JETS 
 
Transcribed by Simon V. ([email protected]) 
 
(FROM THE ALBUM: "THE SCREAMING JETS") 
(Woseen, Walmesly, Gleeson) 
 
 
INTRO: 
E-|-------------------------------|------------------------------------| 
B-|-------------------------------|------------------------------------| 
G-|-------------------------------|------------------------------------| 
D-|-------------------------------|------------------------------------| 
A-|-------------------------------|-----------------------------1p0----| 
E-|--0-0-0-0-7--0-0-0-0-0-0-6-----|--0-0-0-0-0-0-5--0-0-0-0-0-0-----3--| 
 
 
E-|-------------------------------|------------------------------------| 
B-|-------------------------------|------------------------------------| 
G-|-------------------------------|------------------------------------| 
D-|-------------------------------|------------------------------------| 
A-|-------------------------------|-----------------------------1p0----| 
E-|--0-0-0-0-7--0-0-0-0-0-0-6-----|--0-0-0-0-0-0-5--0-0-0-0-0-0-----3--| 
 
 
E-|-------------------------------|------------------------------------| 
B-|-------------------------------|------------------------------------| 
G-|-------------------------------|------------------------------------| 
D-|-------------------------------|------------------------------------| 
A-|-------------------------------|-----------------------------1p0----| 
E-|--0-0-0-0-7--0-0-0-0-0-0-6-----|--0-0-0-0-0-0-5--0-0-0-0-0-0-----3--| 
 
 
E-|-------------------------------|------------------------------------| 
B-|-------------------------------|------------------------------------| 
G-|-------------------------------|------------------------------------| 
D-|-------------------------------|------------------------------------| 
A-|-------------------------------|-----------------------------1p0----| 
E-|--0-0-0-0-7--0-0-0-0-0-0-6-----|--0-0-0-0-0-0-5--0-0-0-0-0-0-----3--| 
 
 
VERSE 1: 
(w/ fill 1) 
					Fill 1:	 
e-|------------|			e-|----------| 
B-|------------|			B-|----------| 
G-|------------|			G-|--9\------| 
D-|---2\-------|			D-|--9\------| 
A-|---2\-------|			A-|--7\------| 
E-|---0--------|			E-|----------| 
  | 
  |Bass: 
  |  
G-|-------------------------------|------------------------------------| 
D-|-------------------------------|------------------------------------| 
A-|-------------------------------|------------------------------------| 
E-|---0--0--0--0--0--0--0--0------|---0--0--0--0--0--0--0--0-----------| 
 
 
G-|-------------------------------|------------------------------------| 
D-|-------------------------------|------------------------------------| 
A-|-------------------------------|------------------------------------| 
E-|---0--0--0--0--0--0--0--0------|---0--0--0--0--0--0--0--------------| 
 
 
 
E-|-------------------------------|------------------------------------| 
B-|-------------------------------|------------------------------------| 
G-|---0~-----0--0-2---------------|---0~-----0--0-2--------------------| 
D-|---0~-----0--0-2---------------|---0~-----0--0-2--------------------| 
A-|-------------------------------|------------------------------------| 
E-|-------------------------------|------------------------------------| 
 
(w/ fill 1) 
					Fill 1:	 
e-|------------|			e-|----------| 
B-|------------|			B-|----------| 
G-|------------|			G-|--9\------| 
D-|---2\-------|			D-|--9\------| 
A-|---2\-------|			A-|--7\------| 
E-|---0--------|			E-|----------| 
  | 
  |Bass: 
  |  
G-|-------------------------------|------------------------------------| 
D-|-------------------------------|------------------------------------| 
A-|-------------------------------|------------------------------------| 
E-|---0--0--0--0--0--0--0--0------|---0--0--0--0--0--0--0--------------| 
 
 
 
E-|-------------------------------|------------------------------------| 
B-|-------------------------------|------------------------------------| 
G-|---0~-----0--0-2---------------|---0~-----0--0-2--------------------| 
D-|---0~-----0--0-2---------------|---0~-----0--0-2--------------------| 
A-|-------------------------------|------------------------------------| 
E-|-------------------------------|------------------------------------| 
 
 
 
E-|-------------------------------|------------------------------------| 
B-|-------------------------------|------------------------------------| 
G-|---0---2--------------0---2----|---0---2------------------0---2-----| 
D-|---0---2--------------0---2----|---0---2------------------0---2-----| 
A-|-------------------------------|------------------------------------| 
E-|-------------------------------|------------------------------------| 
 
 
 
PRE: 
 
E-|-------------------------------|--2----------------------------------| 
B-|-------------------------------|--3----------------------------------| 
G-|--4--4~------------------------|--2---2--2--0--2--0--2---------------| 
D-|--4--4~------------------------|--0---2--2--0--2--0--2---------------| 
A-|--2--2~------------------------|------0--0-----0-----0---------------| 
E-|-------------------------------|-------------------------------------| 
 
 
E-|-------------------------------|--2----------------------------------| 
B-|-------------------------------|--3----------------------------------| 
G-|-------------------------------|--2---2--2--0--2--0--2---------------| 
D-|-------------------------------|--0---2--2--0--2--0--2---------------| 
A-|-------------------------------|------0--0-----0-----0---------------| 
E-|--3-2-3~-----------------------|-------------------------------------| 
 
 
CHORUS: 
 
E-|-------------------------------|------------------------------------| 
B-|-------------------------------|------------------------------------| 
G-|----9-9---------7-7------------|------------------------------------| 
D-|----9-9---------7-7------------|----5-5------------4-4--------------| 
A-|----7-7---------5-5------------|----5-5------------4-4--------------| 
E-|-------------------------------|----3-3------------2-2--------------| 
 
 
E-|-------------------------------|------------------------------------| 
B-|-------------------------------|------------------------------------| 
G-|---------------2--3------------|----------------2--3----------------| 
D-|--2----------------------------|---2--------------------------------| 
A-|--2----------------------------|---2--------------------------------| 
E-|--0---3--5--3------------------|---0---3--5--3----------------------| 
 
 
E-|-------------------------------|------------------------------------| 
B-|-------------------------------|------------------------------------| 
G-|----9-9---------7-7------------|------------------------------------| 
D-|----9-9---------7-7------------|----5-5------------4-4--------------| 
A-|----7-7---------5-5------------|----5-5------------4-4--------------| 
E-|-------------------------------|----3-3------------2-2--------------| 
 
 
E-|---------------------------0----|-----------------------------------| 
B-|---------------------------0----|-----------------------------------| 
G-|---------------------------1----|-----------------------------------| 
D-|--2------------------------2----|-----------------------------------| 
A-|--2------------------------2----|-----------------------------------| 
E-|--0---3--5--3--5--6----0---0----|-----------------------------------| 
 
 
 
VERSE 2: 
 
(w/ fill 1) 
					Fill 1:	 
e-|---0--------|			e-|----------| 
B-|---0--------|			B-|----------| 
G-|---1--------|			G-|--9\------| 
D-|---2\-------|			D-|--9\------| 
A-|---2\-------|			A-|--7\------| 
E-|---0--------|			E-|----------| 
  | 
  |Bass: 
  |  
G-|-------------------------------|------------------------------------| 
D-|-------------------------------|------------------------------------| 
A-|-------------------------------|------------------------------------| 
E-|---0--0--0--0--0--0--0--0------|---0--0--0--0--0--0--0--0-----------| 
 
 
G-|-------------------------------|------------------------------------| 
D-|-------------------------------|------------------------------------| 
A-|-------------------------------|------------------------------------| 
E-|---0--0--0--0--0--0--0--0------|---0--0--0--0--0--0--0--------------| 
 
 
 
E-|-------------------------------|------------------------------------| 
B-|-------------------------------|------------------------------------| 
G-|---0~-----0--0-2---------------|---0~-----0--0-2--------------------| 
D-|---0~-----0--0-2---------------|---0~-----0--0-2--------------------| 
A-|-------------------------------|------------------------------------| 
E-|-------------------------------|------------------------------------| 
 
(w/ fill 1) 
					Fill 1:	 
e-|---0--------|			e-|----------| 
B-|---0--------|			B-|----------| 
G-|---1--------|			G-|--9\------| 
D-|---2\-------|			D-|--9\------| 
A-|---2\-------|			A-|--7\------| 
E-|---0--------|			E-|----------| 
  | 
  |Bass: 
  |  
G-|-------------------------------|------------------------------------| 
D-|-------------------------------|------------------------------------| 
A-|-------------------------------|------------------------------------| 
E-|---0--0--0--0--0--0--0--0------|---0--0--0--0--0--0--0--------------| 
 
 
 
E-|-------------------------------|------------------------------------| 
B-|-------------------------------|------------------------------------| 
G-|---0~-----0--0-2---------------|---0~-----0--0-2--------------------| 
D-|---0~-----0--0-2---------------|---0~-----0--0-2--------------------| 
A-|-------------------------------|------------------------------------| 
E-|-------------------------------|------------------------------------| 
 
 
 
E-|-------------------------------|------------------------------------| 
B-|-------------------------------|------------------------------------| 
G-|---0---2--------------0---2----|---0---2------------------0---2-----| 
D-|---0---2--------------0---2----|---0---2------------------0---2-----| 
A-|-------------------------------|------------------------------------| 
E-|-------------------------------|------------------------------------| 
 
 
 
PRE 2: 
 
E-|-------------------------------|--2----------------------------------| 
B-|-------------------------------|--3----------------------------------| 
G-|--4--4~------------------------|--2---2--2--0--2--0--2---------------| 
D-|--4--4~------------------------|--0---2--2--0--2--0--2---------------| 
A-|--2--2~------------------------|------0--0-----0-----0---------------| 
E-|-------------------------------|-------------------------------------| 
 
 
E-|-------------------------------|--2----------------------------------| 
B-|-------------------------------|--3----------------------------------| 
G-|-------------------------------|--2---2--2--0--2--0--2---------------| 
D-|-------------------------------|--0---2--2--0--2--0--2---------------| 
A-|-------------------------------|------0--0-----0-----0---------------| 
E-|--3-2-3~-----------------------|-------------------------------------| 
 
 
CHORUS 2: 
 
E-|-------------------------------|------------------------------------| 
B-|-------------------------------|------------------------------------| 
G-|----9-9---------7-7------------|------------------------------------| 
D-|----9-9---------7-7------------|----5-5------------4-4--------------| 
A-|----7-7---------5-5------------|----5-5------------4-4--------------| 
E-|-------------------------------|----3-3------------2-2--------------| 
 
 
E-|-------------------------------|------------------------------------| 
B-|-------------------------------|------------------------------------| 
G-|---------------2--3------------|----------------2--3----------------| 
D-|--2----------------------------|---2--------------------------------| 
A-|--2----------------------------|---2--------------------------------| 
E-|--0---3--5--3------------------|---0---3--5--3----------------------| 
 
E-|-------------------------------|------------------------------------| 
B-|-------------------------------|------------------------------------| 
G-|----9-9---------7-7------------|------------------------------------| 
D-|----9-9---------7-7------------|----5-5------------4-4--------------| 
A-|----7-7---------5-5------------|----5-5------------4-4--------------| 
E-|-------------------------------|----3-3------------2-2--------------| 
 
 
E-|-------------------------------|------------------------------------| 
B-|-------------------------------|------------------------------------| 
G-|---------------2--3------------|----------------2--3----------------| 
D-|--2----------------------------|---2--------------------------------| 
A-|--2----------------------------|---2--------------------------------| 
E-|--0---3--5--3------------------|---0---3--5--3----------------------| 
 
E-|-------------------------------|------------------------------------| 
B-|-------------------------------|------------------------------------| 
G-|----9-9---------7-7------------|------------------------------------| 
D-|----9-9---------7-7------------|----5-5------------4-4--------------| 
A-|----7-7---------5-5------------|----5-5------------4-4--------------| 
E-|-------------------------------|----3-3------------2-2--------------| 
 
 
PRE SOLO: 
			(w/ strumming) 
E-|-------------------------------|------------------------------------| 
B-|-------------------------------|------------------------------------| 
G-|--4~---------------------------|--4~--------------------------------| 
D-|--4~---------------------------|--4~--------------------------------| 
A-|--2~---------------------------|--2~--------------------------------| 
E-|-------------------------------|------------------------------------| 
 
 
SOLO (goes over this): 
 
e-|-------------------------------|------------------------------------| 
B-|-------------------------------|------------------------------------| 
G-|---5-------5-5-5-5-5-----------|------------------5-----------------| 
D-|---5-------5-5-5-5-5-----------|---6--5--3--5-----5-----------------| 
A-|---3-------3-3-3-3-3-----------|---------------3--3-----------------| 
E-|-------------------------------|------------------------------------| 
	    muted					 
 
e-|-------------------------------|------------------------------------| 
B-|-------------------------------|------------------------------------| 
G-|---5-------5-5-5-5-5-----------|------------------------------------| 
D-|---5-------5-5-5-5-5-----------|---6--5--3--5-----------------------| 
A-|---3-------3-3-3-3-3-----------|---------------3--------------------| 
E-|-------------------------------|------------------------------------| 
	    muted					 
 
E-|-------------------------------|------------------------------------| 
B-|-------------------------------|------------------------------------| 
G-|---6------6-6-6-6-6------------|------------------------------------| 
D-|---6------6-6-6-6-6------------|---7--6--4--6-----------------------| 
A-|---4------4-4-4-4-4------------|---------------4--------------------| 
E-|-------------------------------|------------------------------------| 
	     muted 
 
E-|-------------------------------|-----------------------------------| 
B-|-------------------------------|-----------------------------------| 
G-|--2--2--2--2--2--2--2--2-------|--2--2--2--2--2--2--2--2-----------| 
D-|--2--2--2--2--2--2--2--2-------|--2--2--2--2--2--2--2--2-----------| 
A-|--0--0--0--0--0--0--0--0-------|--0--0--0--0--0--0--0--0-----------| 
E-|-------------------------------|-----------------------------------| 
     Heavy Mute 
 
E-|-------------------------------|-----------------------------------| 
B-|-------------------------------|-----------------------------------| 
G-|--2--2--2--2--2--2--2--2-------|--2--2--2--2--2--2--2--2-----------| 
D-|--2--2--2--2--2--2--2--2-------|--2--2--2--2--2--2--2--2-----------| 
A-|--0--0--0--0--0--0--0--0-------|--0--0--0--0--0--0--0--0-----------| 
E-|-------------------------------|-----------------------------------| 
     Mute			     crescendo... 
 
 
 
(finger tapping bit in solo) 
E-|-------------------------------|------------------------------------| 
B-|-------------------------------|------------------------------------| 
G-|----9-9---------7-7------------|------------------------------------| 
D-|----9-9---------7-7------------|----5-5------------4-4--------------| 
A-|----7-7---------5-5------------|----5-5------------4-4--------------| 
E-|-------------------------------|----3-3------------2-2--------------| 
 
 
E-|-------------------------------|------------------------------------| 
B-|-------------------------------|------------------------------------| 
G-|---------------2--3------------|----------------2--3----------------| 
D-|--2----------------------------|---2--------------------------------| 
A-|--2----------------------------|---2--------------------------------| 
E-|--0---3--5--3------------------|---0---3--5--3----------------------| 
 
 
	 
E-|-------------------------------|------------------------------------| 
B-|-------------------------------|------------------------------------| 
G-|----/9----------/11------------|----/12-------------/14-------------| 
D-|-------------------------------|------------------------------------| 
A-|-------------------------------|------------------------------------| 
E-|-------------------------------|------------------------------------| 
 
 
E-|--12--12----11--11--11---------|---12--12--12---12--12--12--12------| 
B-|--12--12----12--12--12---------|---12--12--12---12--12--12--12------| 
G-|--11--11----11--11--11---------|---11--11--11---11--11--11--11------| 
D-|--9---9-----9---9---9----------|---9---9---9----9---9---9---9-------| 
A-|-------------------------------|------------------------------------| 
E-|-------------------------------|------------------------------------| 
 
 
E-|---12--11--------12--11--------|-----12--11------------12--11-------| 
B-|---12--12--------12--12--------|-----12--12------------12--12-------| 
G-|---11--11--------11--11--------|-----11--11------------11--11-------| 
D-|---9---9---------9---9---------|-----9---9-------------9---9--------| 
A-|-------------------------------|------------------------------------| 
E-|-------------------------------|------------------------------------| 
 
 
VERSE 3: 
					 
e-|---0--------|			 
B-|---0--------|			 
G-|---1--------|			 
D-|---2\-------|			(assorted fills here) 
A-|---2\-------|			 
E-|---0--------|			 
  | 
  |Bass: 
  |  
G-|-------------------------------|------------------------------------| 
D-|-------------------------------|------------------------------------| 
A-|-------------------------------|------------------------------------| 
E-|---0------3--5--3----5---6-----|---0------3--5--3---5--6------------| 
 
 
G-|-------------------------------|------------------------------------| 
D-|-------------------------------|------------------------------------| 
A-|-------------------------------|------------------------------------| 
E-|---0------3--5--3----5---6-----|---0------3--5--3---5--6------------| 
 
 
 
E-|-------------------------------|------------------------------------| 
B-|-------------------------------|------------------------------------| 
G-|---0~-----0--0-2---------------|---0~-----0--0-2--------------------| 
D-|---0~-----0--0-2---------------|---0~-----0--0-2--------------------| 
A-|-------------------------------|------------------------------------| 
E-|-------------------------------|------------------------------------| 
 
 
					 
e-|---0--------|			 
B-|---0--------|			 
G-|---1--------|			 
D-|---2\-------|			(assorted fills in here) 
A-|---2\-------|			 
E-|---0--------|			 
  | 
  |Bass: 
  |  
G-|-------------------------------|------------------------------------| 
D-|-------------------------------|------------------------------------| 
A-|-------------------------------|------------------------------------| 
E-|---0------3--5--3----5---6-----|---0------3--5--3---5--6------------| 
 
 
 
E-|-------------------------------|------------------------------------| 
B-|-------------------------------|------------------------------------| 
G-|---0~-----0--0-2---------------|---0~-----0--0-2--------------------| 
D-|---0~-----0--0-2---------------|---0~-----0--0-2--------------------| 
A-|-------------------------------|------------------------------------| 
E-|-------------------------------|------------------------------------| 
 
 
 
E-|-------------------------------|------------------------------------| 
B-|-------------------------------|------------------------------------| 
G-|---0---2--------------0---2----|---0---2------------------0---2-----| 
D-|---0---2--------------0---2----|---0---2------------------0---2-----| 
A-|-------------------------------|------------------------------------| 
E-|-------------------------------|------------------------------------| 
 
 
 
PRE 3: 
 
E-|-------------------------------|--2----------------------------------| 
B-|-------------------------------|--3----------------------------------| 
G-|--4--4~------------------------|--2---2--2--0--2--0--2---------------| 
D-|--4--4~------------------------|--0---2--2--0--2--0--2---------------| 
A-|--2--2~------------------------|------0--0-----0-----0---------------| 
E-|-------------------------------|-------------------------------------| 
 
 
E-|-------------------------------|--2----------------------------------| 
B-|-------------------------------|--3----------------------------------| 
G-|-------------------------------|--2---2--2--0--2--0--2---------------| 
D-|-------------------------------|--0---2--2--0--2--0--2---------------| 
A-|-------------------------------|------0--0-----0-----0---------------| 
E-|--3-2-3~-----------------------|-------------------------------------| 
 
 
 
E-|-------------------------------|--2----------------------------------| 
B-|-------------------------------|--3----------------------------------| 
G-|--4--4~------------------------|--2---2--2--0--2--0--2---------------| 
D-|--4--4~------------------------|--0---2--2--0--2--0--2---------------| 
A-|--2--2~------------------------|------0--0-----0-----0---------------| 
E-|-------------------------------|-------------------------------------| 
 
 
E-|-------------------------------|--2----------------------------------| 
B-|-------------------------------|--3----------------------------------| 
G-|-------------------------------|--2---2--2--0--2--0--2---------------| 
D-|-------------------------------|--0---2--2--0--2--0--2---------------| 
A-|-------------------------------|------0--0-----0-----0---------------| 
E-|--3-2-3~-----------------------|-------------------------------------| 
 
 
 
CHORUS 3: 
 
E-|-------------------------------|------------------------------------| 
B-|-------------------------------|------------------------------------| 
G-|----9-9---------7-7------------|------------------------------------| 
D-|----9-9---------7-7------------|----5-5------------4-4--------------| 
A-|----7-7---------5-5------------|----5-5------------4-4--------------| 
E-|-------------------------------|----3-3------------2-2--------------| 
 
 
E-|-------------------------------|------------------------------------| 
B-|-------------------------------|------------------------------------| 
G-|---------------2--3------------|----------------2--3----------------| 
D-|--2----------------------------|---2--------------------------------| 
A-|--2----------------------------|---2--------------------------------| 
E-|--0---3--5--3------------------|---0---3--5--3----------------------| 
 
E-|-------------------------------|------------------------------------| 
B-|-------------------------------|------------------------------------| 
G-|----9-9---------7-7------------|------------------------------------| 
D-|----9-9---------7-7------------|----5-5------------4-4--------------| 
A-|----7-7---------5-5------------|----5-5------------4-4--------------| 
E-|-------------------------------|----3-3------------2-2--------------| 
 
 
E-|-------------------------------|------------------------------------| 
B-|-------------------------------|------------------------------------| 
G-|---------------2--3------------|----------------2--3----------------| 
D-|--2----------------------------|---2--------------------------------| 
A-|--2----------------------------|---2--------------------------------| 
E-|--0---3--5--3------------------|---0---3--5--3----------------------| 
 
E-|-------------------------------|------------------------------------| 
B-|-------------------------------|------------------------------------| 
G-|----9-9---------7-7------------|------------------------------------| 
D-|----9-9---------7-7------------|----5-5------------4-4--------------| 
A-|----7-7---------5-5------------|----5-5------------4-4--------------| 
E-|-------------------------------|----3-3------------2-2--------------| 
 
 
E-|-------------------------------|------------------------------------| 
B-|-------------------------------|------------------------------------| 
G-|---------------2--3------------|----------------2--3----------------| 
D-|--2----------------------------|---2--------------------------------| 
A-|--2----------------------------|---2--------------------------------| 
E-|--0---3--5--3------------------|---0---3--5--3----------------------| 
 
E-|-------------------------------|------------------------------------| 
B-|-------------------------------|------------------------------------| 
G-|----9-9---------7-7------------|------------------------------------| 
D-|----9-9---------7-7------------|----5-5------------4-4--------------| 
A-|----7-7---------5-5------------|----5-5------------4-4--------------| 
E-|-------------------------------|----3-3------------2-2--------------| 
 
OUTRO: 
 
E-|-------------------------------|------------------------------------| 
B-|-------------------------------|------------------------------------| 
G-|-------------------------------|------------------------------------| 
D-|-------------------------------|------------------------------------| 
A-|-------------------------------|-----------------------------1p0----| 
E-|--0-0-0---7--0-0-0-0-0---6-----|--0-0-0-0-0---5--0-0-0-0-0-0-----3--| 
 
 
E-|-------------------------------|------------------------------------| 
B-|-------------------------------|------------------------------------| 
G-|-------------------------------|------------------------------------| 
D-|-------------------------------|------------------------------5--5--| 
A-|-------------------------------|------------------------------5--5--| 
E-|--0-0-0-0-7--0-0-0-0-0-0-6-----|--0-0-0-0-0-0-5-----0-0-------3--3--| 
 
 
E-|-------------------------------|---0--------------------------------| 
B-|-------------------------------|---0--------------------------------| 
G-|-------------------------------|---0--------------------------------| 
D-|--4-----------3----------------|---2--------------------------------| 
A-|--4-----------3----------------|---2--------------------------------| 
E-|--2-----------1----------------|---0--------------------------------| 
 
************************************************************************ 
 
LYRICS: 
 
V1: 
Spinning in a nose dive 
change my old life  
wash my hands 
 
up and down 
turned around 
am i ever gonna land? 
 
Dreamin of my new way every day 
is this my shelter? am i right? 
 
CHORUS: 
You want me to live like Jesus Christ 
I could never make that sacrifice 
 
V2 
Sinking in this whirlpool 
and i'm drownin in the mire 
 
up and down,  
twist me round 
a feather could have knocked me down 
 
faces flash before me black 
at my back, cut me some slack 
 
CHORUS 2: 
You want me to live like Jesus Christ 
you toss your coin but i roll my dice 
I could never make that sacrifice 
 
V3: 
Falling through this vacuum  
in my black room lost in space 
 
a crack in a face of stone 
i see a king on a tin throne 
 
seen the light from your fallen  eyes 
while crimson dries 
got so much to learn 
want your money to burn 
 
CHORUS 2: 
You want me to live like Jesus Christ 
I could never make that sacrifice 
you toss your coin but i roll my dice 
I could never make that sacrifice 
 
 
 

		  

See also:

tabs Spiderbait - Black Betty tabs Pete Murray - Tonic tabs Powderfinger - These Days tabs John Butler Trio - Life Ain't What It Seems tabs Xavier Rudd - Shelter tabs John Butler Trio - Peaches & Cream
e-chords

Other versions:

tabs Inside Out - Sacrifice tabs The Screaming Jets - Sacrifice tabs Elton John - Sacrifice tabs Motörhead - Sacrifice tabs T.A.T.U. - Sacrifice (intro) tabs Afi - Sacrifice theory (solo)
auto scroll beats size up size down change color hide chords drawings
tab show chords e-chords YouTube Clip e-chords hide all tabs e-chords go to top tab

share