The Screaming Jets

Better

The Screaming Jets

tabs Expert expert

save to print version add songbook text version e-mail correct tuner
chordsukulelecavacokeyboardtabbassdrumsharmonicaflute Guitar Pro
close

there isn't a video lesson for this song

chords

Better

	  		THIS TAB IS NEARLY EXACT,IF YOU FIND A MISTAKE PLEASE E-MAIL ME. 
I DON'T KNOW IF THE SOLO'S CORRECT BUT THATS HOW I PLAY IT AND IT 
SOUNDS PRETTY CLOSE. 
Standard Tuning 
 
x-palm mute 
\-slide 
~-Tremolo 
b-Bend 
r-release 
()-semitones e.g bend 7th fret up two semitones so it sounds like fret 9. 
 
Intro 
|-------------------------------------------| 
|--5--5--5----------------------------------| 
|------------6---6--6---4---4--4---6---6--6-|}repeat several times 
|---7-----7----7------7---7------7---7------| 
|-------------------------------------------| 
|-------------------------------------------| 
Still did'nt know what happened when..... 
 
 
Pre-Chorus 
|-----------------------------------------| 
|--------------2--2---------7-------------| 
|--2--------x--2--2-----7---7----9\7-9\7--| 
|--4--4-----x--2--2-----7---7----9\7-9\7--| 
|--4--4-----x--0--0-----5---5---7---------| 
|--2--2-----------------------------------| 
Now I see the reason why not........ 
 
|-----------------------------------------|---------------------| 
|--------------2--2---------7-------------|---------------------| 
|--2--------x--2--2-----7---7----9\7-9\7--|-7---7--9--9-7-9-9-7-| 
|--4--4-----x--2--2-----7---7----9\7-9\7--|-7---7--9--9-7-9-9-7-| 
|--4--4-----x--0--0-----5---5---7---------|-5---5--7--7-7-7-7-7-| 
|--2--2-----------------------------------|---------------------| 
You dont have to please them................................ 
 
Back to Intro 
 
Chorus 
|-----------------------------|--3------------------------------| 
|-2----------------3----------|--3------------2-----------------| 
|-2----------------0-----0--0-|--0---------2--2-----------------| 
|-2------------2---2-----0--0-|--0---------2--2-------0-2-0-----| 
|-0---------3--3---3-----2--2-|--2-------0----0---0-2-------4-2-| 
|------------------------3--3-|--3------------------------------| 
Say you never get anywhere Well they dont care and its.......... 
 
Followed by Intro,Pre-Chourus & Chorus 
 
Interlude 
|-------------------------------------------------| 
|---2---------------------------------------------| 
|---2---------HOLD Through out--------------------| 
|---2---------------------------------------------| 
|---0---------------------------------------------| 
|-------------------------------------------------| 
Things arent always what they seem................ 
 
Followed by Pre-chorus then Chorus 
 
Solo 
|----------------------------------------| 
|----------------------------------------| 
|--7b(9)----5-------7b---7b----5-----5---| 
|------------7--7---------------7--7-----| 
|----------------------------------------| 
|----------------------------------------| 
 
   ~  ~  ~  ~  ~ 
|----------------------------------------| 
|----------------------------------------| 
|--4--5--7--5--4-------------------------| 
|-----------------5---7------------------| 
|----------------------------------------| 
|----------------------------------------| 
 
|-------------------------------------8--| 
|------------------------------8---10----| 
|----5--------4----5\7--7---9------------| 
|-----7----------------------------------| 
|----------------------------------------| 
|----------------------------------------| 
                       w/bar...... 
|---7--8--10--8--7-----------------------| 
|-------------------8--10---10--10--10b--| 
|----------------------------------------| 
|----------------------------------------| 
|----------------------------------------| 
|----------------------------------------| 
 
|--17---------------------------------------------------------------17--20-| 
|-----20b--20b----20br--20b--20--17--20----20br--17--20----20b--20b--------| 
|--------------------------------------------------------------------------| 
|--------------------------------------------------------------------------| 
|--------------------------------------------------------------------------| 
|--------------------------------------------------------------------------| 
 
|--20br--17---20b-r--17---20b-r---17--17--------------------| 
|----------17----------17-----------17---20b-r--17------20--| 
|---------------------------------------------------19b-----| 
|-----------------------------------------------------------| 
|-----------------------------------------------------------| 
|-----------------------------------------------------------| 
 
|--------------------------------------------------------------------------| 
|--20---20--20--20----------20-----------20----20------20------------------| 
|--19b--19b-----19b-r19\17--19b--19b--19b---19b---19b-----19b-19b-r19\17\4-| 
|--------------------------------------------------------------------------| 
|--------------------------------------------------------------------------| 
|--------------------------------------------------------------------------| 
They say you'll never get anywhere.................... 
 
 
OUTRO 
|-------------------------------------3-----| 
|-------------------------------------3-----| 
|--5----------------------------------0-----| 
|--5----------------------------------0-----| 
|--3----------------------------------2-----| 
|-------------------------------------3-----| 
They dont care and its just not fair   you know... 
 
|-------------------------------------17--17--20b---| 
|---20bb--20b-r20\17---20--20------8----------------| 
|--------------------19----19------7b---------------| 
|---------------------------------------------------| 
|---------------------------------------------------| 
|---------------------------------------------------| 
BETTER 
 
|--20---17------------------------------------------------------------------------| 
|-----------20b--r20\17--20b--r20\17-----20---------------------------------------| 
|------------------------------------19b----19b--r--17\19\17--17--17--17\19\17----| 
|------------------------------------------------------------------------------17-| 
|---------------------------------------------------------------------------------| 
|---------------------------------------------------------------------------------| 
 
Guitar 2 
|-------------------------------------------------| 
|-------------------------------------------------| 
|--2--2--2--2--2--2--2--2--2--2--2--2--2--2--2--2-| 
|--2--2--2--2--2--2--2--2--2--2--2--2--2--2--2--2-| 
|--0--0--0--0--0--0--0--0--0--0--0--0--0--0--0--0-| 
|-------------------------------------------------| 
 
 
|-------------------------------------------------| 
|-------------------------------------------------| 
|-------------------------------------2-----2-----| 
|--17--19-----------------------------2-----2-----| 
|---------19----19\17\15--------------0-----0-----| 
|------------------------17\0---------------------| 
 
And Thats it, enjoy 
 
__________________________________________________________________________________________ 
 
 
 
Better - Screaming Jets 
 
Bass Riff - A, Guitar Riff  E - C# - B - C# 
 
Verse 1 over riff 
Bass Riff Guitar Similie  E  - C# - B - C# 
Still didn't know what happened when you knocked upon my door 
The things you had and the life you lead are all dreams you had before 
Your eyes your face your heart and soul you know they said it all 
What happened on that day back then, the moment hurt us all 
 
Pre Chorus (Band In Guitar Single Strums) 
F#                        A                      D                     E 
Now you see the reason why not everyone's the same 
F#                        A                      D                     E 
You don't have to reason i'm trying hard to say your name 
 
 
Chorus 
A                                               C 
Say you'll never get anywhere, they don't care its just not fair 
G                                A 
You know an I know better 
A                                               C 
Say you never get anywhere, well they don't care its just not fair 
G                                A 
You know and I know better?  yes I do 
 
Riff X 2 
 
Verse 2 
Well the weeks go by and you wonder why is this really true 
Your heart says no but your feelings show the whole thing had left you 
You and I ?. That aint really you 
We always knew that it would work out right and we can start anew 
 
Pre Chorus 
Now you see the reason why not everyone's the same 
You don't have to reason i'm trying hard to say your name 
 
Chorus 
Say you'll never get anywhere, they don't care its just not fair 
You know an I know better 
Say you never get anywhere, well they don't care its just not fair 
You know and I know better 
 
 
 
 
 
Breakdown thingy drums and feedback 
Well Things aint always what they seem so wake up man get outta your dream 
Things aint always what they seem so? Wake Up 
Things aint always what they seem wake up man you're in my dream 
Things aint always 
 
Pre Chorus (Band In) 
Now you see the reason why not everyone's the same 
You don't have to reason I'm trying hard???. 
 
Chorus  
Say you'll never get anywhere, they don't care its just not fair 
You know an I know better 
Say you never get anywhere, well they don't care its just not fair 
You know and I know better 
 
Chorus - No band (just cymbal taps) 
Say you'll never get anywhere, they don't care its just not fair 
You know an I know better 
Say you never get anywhere, well they don't care its just not fair 
You know and I know better 1,2,3,4 
 
 
 
Speed up like hell 
Say you'll never get anywhere, they don't care its just not fair??.. 
You're never never never never? gonna get anywhere, that's what they tell me 
 
Never never never never gonna get anywhere and I don't care and that's not fair 
 
 
Solo Over quick riff 
A       C    G     A  ONLY 
 
 
Outro thingy (Single Strums) 
Say you'll never get anywhere, they don't care its just not fair 
You know an I know better 
 
 

		  

Full key step upFull key step up
Half key step upHalf key step up
Half key step downHalf key step down
Full key step downFull key step down
hide glossary

See also:

tabs Spiderbait - Black Betty tabs Pete Murray - Tonic tabs Powderfinger - These Days tabs John Butler Trio - Life Ain't What It Seems tabs Xavier Rudd - Shelter tabs John Butler Trio - Peaches & Cream
e-chords

Other versions:

tabs Guns N' Roses - Better tabs Hoobastank - Better tabs The Screaming Jets - Better tabs Jason Mraz - Better (acoustic) tabs Judas Priest - Better By You Better Than Me tabs Misc Television - Better Call Saul - Outro Theme
auto scroll beats size up size down change color hide chords drawings
tab show chords e-chords YouTube Clip e-chords hide all tabs e-chords go to top tab

share