The Rolling Stones

home > The Rolling Stones

Out of control Tab

The Rolling Stones

Difficulty: EasyEasy

by peretto

tuner correct add songbook print version text version save to e-mail
chordsukulelecavacokeyboardtabbassdrumsharmonicsflute Guitar Pro
chords

Out of control

  		*Introdução: 3x 
  
          
            
      e|-------------|-----------|------------------| 
      B|-------------|-----------|------------------|  
      G|-------------|-----------|------------------|  
      D|-------------|-----------|------------------|  
      A|------5------|----7-5----|------5-----------|  
      E|--7-7---7-7--|--7-----7--|--7-7---7-7--5-7--|  
  
*Nota: Tocar a introdução no verso 
  
 
 
*Verso:  
       I was out in the city  
       I was out in the rain  
       I was feeling down-hearted  
       I was drinking again  
  
*Verso:  
       I was standing by the bridges  
       Where the dark water flows  
       I was talking to a stranger  
       About times long ago  
  
  
*Pré Refrão:  
               D  
       I was young  
              A  
       I was foolish  
              F#  
       I was angry  
              Bm  
       I was vain  
               D  
       I was charming   
              A  
       I was lucky  
                F#          Bm    "*" 
       Tell me how have I changed  
  
  
"*" :  
      e|-----------------------| 
      B|---9h10~~~~-9h10~~~~---|  
      G|-----------------------|  
      D|-----------------------| 
      A|-----------------------|  
      E|-----------------------| 
 
                D  
       Now I'm out  
           A         Bm  
       Oh out of control  
                D  
       Now I'm out  
           A         Bm     A Bm  A Bm  
       Oh out of control  
  
       Oh help me now  
  
  
*Verso:  
       And the girls in the doorway  
       And the boys on the game  
       And the drunks and the homeless  
       They all know me  
  
*Verso:  
       And the police on the corner  
       Give a nod and a wave  
       As they point me  
       To my final destination  
  
  
*Pré Refrão:  
               D 
       I was young  
              A 
       I was foolish  
             F# 
       I was angry  
              Bm 
       I was vain 
               D 
       I was charming 
                A 
       Feeling lucky  
                F#          Bm      Bm 
       Tell me how have I changed  
 
*Refrão:  
         D  
       Now I'm out  
           A         Bm  
       Oh out of control  
                D  
       Now I'm out  
           A         Bm      
       Oh out of control  
  
       Oh help me now :          
        
 
*Verso:     
       In the hotel I'm excited  
       By the smile on her face  
       But I wondered  
       How was time  
       Gonna change her  
  
  
*Pré Refrão:   
               D 
       I was young  
              A 
       I was foolish  
             F# 
       I was angry  
              Bm 
       I was vain 
               D 
       I was charming 
                A 
       Feeling lucky  
                F#          Bm      Bm 
       Tell me how have I changed  
  
*Refrão:  
         D  
       Now I'm out  
           A         Bm  
       Oh out of control  
                D  
       Now I'm out  
           A         Bm     A Bm  A Bm  
       Oh out of control  
  
       Oh help me now  
 
 
*Instrumental:    
           
      e|------------|----------|-----------------------| 
      B|------------|----------|-----------------------|  
      G|------------|----------|-----------------------|  
      D|------------|----------|-----------------------|  
      A|------------|--7--5----|-----------------------|  
      E|--7-7--5-7--|----------|--7-7--5-7---7-7--5-7--|  
                                                 {várias vezes} 
 
*Solo: 
(keyth richards) 
 
 
      e|----------------------8--------| 
      B|--9h10---9h10---9h10-----10/0--|  
      G|-------------------------------|  
      D|-------------------------------| 
      A|-------------------------------|  
      E|-------------------------------| 
                           
 
*Refrão:  
         D  
       Now I'm out  
           A         Bm  
       Oh out of control  
                D  
       Now I'm out  
           A         Bm     A Bm  A Bm  
       Oh out of control  
  
       Oh help me now           
 
___________________________________________________________________________________  

	  

Full key step upFull key step up
Half key step upHalf key step up
Half key step downHalf key step down
Full key step downFull key step down
Search Paypal
auto scroll beats size up size down change color hide chords drawings
tab show chords e-chords YouTube Clip e-chords hide all tabs e-chords go to top tab