The Rolling Stones

home > The Rolling Stones

Doom And Gloom Tab

The Rolling Stones

Difficulty: ExpertExpert

by jessgomes

tuner correct add songbook print version text version save to e-mail
chordsukulelecavacokeyboardtabbassdrumsharmonicsflute Guitar Pro
chords

Doom And Gloom

  		

Intro 
e------------------------------------------------------------------| 
B------------------------------------------------------------------| 
G-----10--10-7---10--10-7---7--7--7--------------------------------| Repeat 
D-----x---x--x---x---x--x---x--x--x--------------------------------| 
A-----8---8--5---8---8--5---5--5--5--------------------------------| 
D-0-0-0---0--0---0---0--0---0--0--0--------------------------------| 


Verse 
I had a dream last niGht, That I was pilotinG a plane... 
e------------------------------------------------------------------| 
B------------------------------------------------------------------| 
G--12-12-10--------------------------------------------------------| Repeat 
D--12-12-10--------------------------------------------------------| 
A--10-10-8---------------------------------------------------------| 
D------------------------------------------------------------------| 

Pre-Chorus 
e------------------------------------------------------------------| 
B------------------------------------------------------------------| 
G----------------------------------10--10-7---10--10-7---7--7--7---| 
D-10-10-10-10-10---5-5-5-5-5-------x---x--x---x---x--x---x--x--x---| 
A-10-10-10-10-10---5-5-5-5-5-------8---8--5---8---8--5---5--5--5---| 
D-10-10-10-10-10---5-5-5-5-5---0-0-0---0--0---0---0--0---0--0--0---| 

e------------------------------------------------------------------| 
B------------------------------------------------------------------| 
G------------------------------------------------------------------| 
D-10-10-10-10-10---5-5-5-5-5---------------------------------------| 
A-10-10-10-10-10---5-5-5-5-5---------------------------------------| 
D-10-10-10-10-10---5-5-5-5-5---------------------------------------| 

Chorus 

e------------------------------------------------------------------| 
B------------------------------------------------------------------| 
G------------------------------------------------------------------| 
D-12-12-12-12-12-12-12-12---10-10-10-10-10-10-10-10----------------| 
A-12-12-12-12-12-12-12-12---10-10-10-10-10-10-10-10----------------| 
D-12-12-12-12-12-12-12-12---10-10-10-10-10-10-10-10----------------| 
                                                                     Repeat 
e------------------------------------------------------------------| 
B------------------------------------------------------------------| 
G------------------------------------------------------------------| 
D-5-5-5-5-5-5-5-5---0-0-0-0-0-0-0-0--------------------------------| 
A-5-5-5-5-5-5-5-5---0-0-0-0-0-0-0-0--------------------------------| 
D-5-5-5-5-5-5-5-5---0-0-0-0-0-0-0-0--------------------------------| 
 
	  

Search Paypal
auto scroll beats size up size down change color hide chords drawings
tab show chords e-chords YouTube Clip e-chords hide all tabs e-chords go to top tab