The Reverend Horton Heat

400 Bucks

The Reverend Horton Heat

tabs

by  ROWANE

save to print version add songbook text version e-mail correct tuner
chordsukulelecavacokeyboardtabbassdrumsharmonicaflute Guitar Pro
close

there isn't a video lesson for this song

chords

400 Bucks

	  		400 Bucks: The Reverend Horton Heat 
                 
  
  
INTRO/BRIDGE 
E ------------------------------------------------------------- 
B ------------------------------------------------------------- 
G --------------------------7---5------------------------------ 
D --------------------------7---5------------------------------ 
A ---------6p5---6p5---6p5--5---3------------------------------ 
E -5-5-5-5-----5-----5----------------------------------------- 
  
VERSE RIFF 1 
E ------------------------------- 
B ------------------------------- 
G --6-/-7--6--x-x-x-x-x-x-x-x-x-- 
D --5-/-8--7--x-x-x-x-x-x-x-x-x-- 
A --5-/-8--7--x-x-x-x-x-x-x-x-x-- 
E --3-/-6--5--x-x-x-x-x-x-x-x-x-- 
  
VERSE RIFF 2 
E ------------------------------ 
B ------------------------------ 
G --6---7--6-------------------- 
D --5---8--7-------------------- 
A --5---8--7-------------------- 
E --3---6--5-------------------- 
  
VERSE RIFF 3 
E ------------------------------ 
B ------------------------------ 
G --6---7--6-6-6-6-6-6-6-6-6-6-- 
D --5---8--7-7-7-7-7-7-7-7-7-7-- 
A --5---8--7-7-7-7-7-7-7-7-7-7-- 
E --3---6--5-5-5-5-5-5-5-5-5-5-- 
  
A second guitar makes lots of sliding/muting noises under VERSE RIFFS 1 and 3. 
There is a solo that I'm not one to figure out. If anyone else knows it or 
ANY other Reverend stuff, please post it, I haven't seen any Reverend tabs 
anywhere. 
  
Lyrics: 
  
You said, "Honey?" 
I sent you 400 bucks  
So you could buy some car 
Well I loved you so much 
I didn't get too far 
For 400 bucks 
You were sweet that day 
I guess I shoulda known 
That you'd never repay 
400 bucks 
400 bucks 
And you don't give a fuck 
About my 400 bucks 
A '57 sedan 
And it's a mom and pop car 
And now your old boyfriend's back 
My only friend's at the bar 
400 bucks 
400 bucks 
And you don't give a fuck 
About my 400 bucks 
You got a new puppy dog 
Threw your cat on the street 
And now we're both fucked 
Without my 400 bucks 
400 bucks 
400 bucks 
And you don't give a fuck 
About my 400 bucks 
Remember when you said, "Honey," 
"Someday that car is gonna look so good in front of our house." 
BITCH! 
I want my 400 dollars 
I want my 400 dollars and I want it right now give it to me! 
 
 

		  

See also:

tabs Corey Smith - Twenty-One tabs B.B. King - How blues can you get tabs Muddy Waters - Champagne & Reefer tabs Allman Brothers Band - Its Not My Cross To Bear tabs Robert Johnson - Walkin' Blues tabs Noah Lewis - New Minglewood Blues
e-chords

Other versions:

tabs The Reverend Horton Heat - 400 Bucks
auto scroll beats size up size down change color hide chords drawings
tab show chords e-chords YouTube Clip e-chords hide all tabs e-chords go to top tab

share