The Rev. Peyton's Big Damn Band

My Old Man Boogie

The Rev. Peyton's Big Damn Band

tabs Advanced advanced

by  WEEZER PILLOWS

save to print version add songbook text version e-mail correct tuner
chordsukulelecavacokeyboardtabbassdrumsharmonicaflute Guitar Pro
close

there isn't a video lesson for this song

chords

My Old Man Boogie

	  		My Old Man Boogie 
by The Reverend Peyton's Big Damn Band 
 
www.bigdamnband.com 
 
STANDARD TUNING 
 
h - hammer on 
/ - slide 
 
main riff 
|------------------------| 
|------6-6------3-3-3-3--| 
|--5h7-7-7--3-4-4-4-4-4--| 
|------------------------| 
|------------------------| 
|------------------------| 
 
Verse 
|-----------| 
|------6----| 
|--5h7-7-5--|played  
|-----------|several 
|-----------|times 
|-----------| 
then main riff 
 
Solo - use a slide 
|--10-/-3--1/3/6-----| 
|-----------------0--| 
|-----------------0--|repeat 
|-----------------0--| 
|--------------------| 
|--------------------| 

		  

See also:

tabs Blind Blake - One Time Blues tabs Robert Johnson - Red Hots tabs Rival Sons - Keep On Swinging tabs John Lee Hooker - whiskey and wimmen tabs Mississipi John Hurt - Stack O' Lee Blues tabs Muddy Waters - I can't be satisfied
e-chords

Other versions:

tabs The Rev. Peyton's Big Damn Band - My Old Man Boogie
auto scroll beats size up size down change color hide chords drawings
tab show chords e-chords YouTube Clip e-chords hide all tabs e-chords go to top tab

share