The Knife

Still Light

The Knife

tabs

by  PAULANTUNES

save to print version add songbook text version e-mail correct tuner
chordsukulelecavacokeyboardtabbassdrumsharmonicaflute Guitar Pro
close

there isn't a video lesson for this song

chords

Still Light

	  		The Knife - Still Light  
Arrangement for acoustic guitar by Timur Stqrm Konovalov 
 https://www.youtube.com/watch?v=6hSJTPgEIzw  

E||-------9-----------|------9-----------|-------------------|--------------------| 
B||-------7-----------|------7-----------|-------------------|--------------------| 
G||*--10-------6s--8--|--10-------6s--8--|--10s--8----3s--6--|--10s--8----3s--6--*| 
D||*---8-------4s--6--|---8-------4s--6--|---8s--6----1s--4--|---8s--6----1s--4--*| 
A||-------------------|------------------|-------------------|--------------------| 
E||-------------------|------------------|-------------------|--------------------| 

|-----------9-------------------|--------9---------------|----------------------------| 
|-------------------------------|------------------------|----6----6-6----------------| 
|----10-------------------------|--10--------------------|----8----8----------10------| 
|-11-11-11-11---11-11--13---13--|--11----11------11--13--|-8--8----6------8---11---11-| 
|---------------9------11-------|-----------------9--11--|----------------6----9------| 
|-------------------------------|------------------------|----------------------------| 

|-----------------------------|-----9-----------|-------9----------|----------------------------| 
|-----------------------------|-----------------|------------------|----------------------------| 
|--10--8-8--10---10---10------|--10-------------|--10--------------|--10--8------10-10-10-10----| 
|---8--6-----8---11-------11--|-----11--11--13--|--11--11--11--13--|---8--6--8---11----------11-| 
|------------6----9-----------|----------9--11--|-----------9--11--|---------6---9--------------| 
|-----------------------------|-----------------|------------------|----------------------------| 

|--------------------------------------|----------9----------------|------------------9---------| 
|--------------------------------------|---------------------------|----------------------------| 
|--10--8----6---10-10-10-10-------10-10|--10--10--10---------------|---8--8--8--8-10-10---------| 
|---8--6--8-----11----------11-11------|--11------11-11-11--13-----|--10-10-10-10-11-11--11s13--| 
|---------6------9---------------------|--------------9-----11-----|----------------------9s11--| 
|--------------------------------------|---------------------------|----------------------------| 

|---------------------------|--9-9------------6--|------9-9-----------9--------| 
|---------------------------|--9-9-11-11-9--9-6--|------9-9-11-11--9--9-11-----| 
|---8--8--8--8-10--8--------|------10-10-10-8----|----------10-10-10-10-10-----| 
|--10-10-10-10-11-11--8s11--|------------8--6-8--|--11------------------11s13--| 
|---------------------6s9---|-----------------6--|---9-------------------9s11--| 
|---------------------------|--------------------|-----------------------------| 
                                |   fast    | 
|------------------9----------|------------------------------------| 
|-----------------------------|------------------------------------| 
|---8--8--8--8-10-10------8---|---8--8--8--8---8---8--10--8--------| 
|--10-10-10-10-11-11--11------|--10-10-10-10--10--10--11-11--8s11--| 
|----------------------9--11--|------------------------------6s9---| 
|-----------------------------|------------------------------------| 

|--9-9------------6--|------9-9-----------9--------| |--------------4-6---| 
|--9-9-11-11-9--9-6--|------9-9-11-11--9--9--------| |----------2-4-------| 
|------10-10-10-8----|----------10-10-10-10--------| |*------1-3---------*| x8 
|------------8--6-8--|--11-------------------------| |*----1-------------*| 
|-----------------6--|---9-------------------------| |---4----------------| 
|--------------------|-----------------------------| |--------------------| 
		  

See also:

tabs Shiny Toy Guns - Ghost Town tabs Fedde Le Grand - Put Your Hands Up 4 Detroit tabs Buckethead - Big D's Touch tabs Buckethead - Callbox tabs Buckethead - Nightrain (solo) tabs Breathe Carolina - Lauren's Song (acoustic)
e-chords

Other versions:

tabs The Knife - Still Light
auto scroll beats size up size down change color hide chords drawings
tab show chords e-chords YouTube Clip e-chords hide all tabs e-chords go to top tab

share