The Hellacopters

Turn The Wrong Key

The Hellacopters

tabs

by  TONHOTKD

save to print version add songbook text version e-mail correct tuner
chordsukulelecavacokeyboardtabbassdrumsharmonicaflute Guitar Pro
close

there isn't a video lesson for this song

chords

Turn The Wrong Key

	  		               Turn The Wrong Key                                 
 
 
Guitar 1 
         
Tune to E-flat, half-tone down. 
        
Fade in with: 
 
D#||--1----------------| 
A#||--1----------------| 
F#||--2----------------| 
C#||--3----------------| 
G#||--3----------------| 
D#||-------------------| 
 
Main riff: 
                                                                 
|-------------------------| 
|-------------------------| 
|---------------------10--| 
|----------5--7-------10--| 
|--5--7----3--5----7--8---| 
|--3--5------------5------| 
 
|------------------------| 
|---------------------1--| 
|---------------------2--| 
|----------5--7-------3--| 
|--5--7----3--5----7--3--| 
|--3--5------------5--1--| 
 
 
                                                                
|--------------------------------|------------------------| 
|--------------------------------|------------------------| 
|----10--10--10--10--10--10--10--|------------------------| 
|----10--10--10--10--10--10--10--|----------5--7-------3--| 
|----8---8---8---8---8---8---8---|--5--7----3--5----7--3--| 
|--------------------------------|--3--5------------5--1--| 
 
                                                                              
|-------------------------|-------------------------| 
|-------------------------|-------------------------| 
|-------------------------|---------------------10--| 
|----3--3--3--3--3--3--3--|----------5--7-------10--| 
|----3--3--3--3--3--3--3--|--5--7----3--5----7--8---| 
|----1--1--1--1--1--1--1--|--3--5------------5------| 
 
 
|--3----3----3----3----|--3----3----3----3----| 
|--3----3----3----3----|--3----3----3----3----| 
|--0----0----0----0----|--0----0----0----0----| 
|--0----0----0----0----|--0----0----0----0----| 
|--2----2----2----2----|--2----2----2----2----| 
|--3----3----3----3----|--3----3----3----3----| 
 
--2----2----2----2----|--2----2----2-------1--|----1--1--2----2--2--3--| 
--3----3----3----3----|--3----3----3-------1--|----1--1--3----3--3--3--| 
--2----2----2----2----|--2----2----2--4----2--|----2--2--2----2--2--0--| 
--0----0----0----0----|--0----0----0--2----3--|----3--3--0----0--0--0--| 
--0----0----0----0----|--0----0----0--2----3--|----3--3--0----0--0--2--| 
--2----2----2----2----|--2----2----2--0----1--|----1--1--2----2--2--3--| 
 
                                                                            
----3--3-------------0--|----0--0--0----0--0--0--|----0--0--2----2--2--2--| 
----3--3-------------1--|----1--1--1----1--1--1--|----1--1--3----3--3--3--| 
----0--0-------------2--|----2--0--0----0--0--0--|----0--0--2----2--2--2--| 
----0--0--6----6--6--2--|----2--2--0----0--0--2--|----2--2--0----0--0--0--| 
----2--2--5----5--5--0--|----0--0--2----2--2--3--|----3--3--0----0--0--0--| 
----3--3--4----4--4-----|------------------------|------------------------| 
 
                                                       
--------------------------|--------------------------| 
--10----10----10----10----|--10----10----10----10----| 
--10----10----10----10----|--10----10----10----10----| 
--10----10----10----10----|--10----10----10----10----| 
--8-----8-----8-----8-----|--8-----8-----8-----8-----| 
--8-----8-----8-----8-----|--8-----8-----8-----8-----| 
 
                                                                              
--------------------------|--------------------------|--7----7----7----7----| 
--12----12----12----12----|--12----12----12----12----|--8----8----8----8----| 
--12----12----12----12----|--12----12----12----12----|--9----9----9----9----| 
--12----12----12----12----|--12----12----12----12----|--9----9----9----9----| 
--10----10----10----10----|--10----10----10----10----|--7----7----7----7----| 
--10----10----10----10----|--10----10----10----10----|--7----7----7----7----| 
 
 
                                                                              
--7----7----7----7----|--------------------------|--------------------------| 
--8----8----8----8----|--------------------------|--------------------------| 
--9----9----9----9----|--2--2--2--2--2--2--2--2--|--------------------------| 
--9----9----9----9----|--3--3--3--3--3--3--3--3--|--5--5--5--5--5--5--5--5--| 
--7----7----7----7----|--3--3--3--3--3--3--3--3--|--5--5--5--5--5--5--5--5--| 
--7----7----7----7----|--1--1--1--1--1--1--1--1/-|--3--3--3--3--3--3--3--3--| 
 
 
Guitar 2 leads:                                                      
------------------------|-------------------------|-------------------------| 
------------------------|-------------------------|--------------------8h10-| 
------------------------|-------------------------|-------------------------| 
----------5--7-------3--|----3--3--3--------------|----------5--7-----------| 
--5--7----3--5----7--3--|----3--3--3-----3--5--3--|--5--7----3--5-----------| 
--3--5------------5--1--|----1--1--1/-5-----------|--3--5-------------------| 
 
                                                  
--------------8~-----|--------------------------| 
------10~------------|--8h10------10-------8-10-| 
---------------------|--------------------------| 
---------------------|--------------------------| 
---------------------|--------------------------| 
---------------------|--------------------------| 
 
                                                             
--8-10-8----8-10-8----8-10-8----------|--------------------| 
---------10--------10--------10-8-5-5-|--------------------| 
--------------------------------------|--7--5~-------------| 
--------------------------------------|--------------------| 
--------------------------------------|--------------------| 
--------------------------------------|--------------------| 
 
Solo 2:                                                                           
------------------------|-----------------------|------------------------| 
---------------------8b-|------8b---8r-5--------|------------------------| 
------------------x-----|-----------------7--5--|---------------------5--| 
----------5--7----------|-----------------------|----7--5--7----5--7-----| 
--5--7----3--5----------|-----------------------|------------------------| 
--3--5------------------|-----------------------|------------------------| 
 
 
                                                                              
-----------------8----|--x--10r---8--10--10r---8--|--5-----5----------5-----| 
------------8/10------|---------------------------|-----5-----8~---8-----5--| 
----------------------|---------------------------|-------------------------| 
----------------------|---------------------------|-------------------------| 
----------------------|---------------------------|-------------------------| 
----------------------|---------------------------|-------------------------| 
 
 
                                                                            
--8b---5----------------|----------------------------|--------------------| 
------------8--5--------|----------------------------|--------------------| 
------------------7--5--|--7b-7h5-7--5--7b-7h5-7--5--|--5h7~--------------| 
------------------------|----------------------------|--------------------| 
------------------------|----------------------------|--------------------| 
------------------------|----------------------------|--------------------| 
 
Vox thingy: Misc. bits... 
 
------------------|-----------------------|-------------------| 
------------------|--------------3-----3b-|----------------3r-| 
------------------|------2----5-----5-----|-------------------| 
------------------|-----------------------|-------------------| 
------------------|-----------------------|-------------------| 
------------------|-----------------------|-------------------| 
 
                                                                     
------------------------|-------------------|-----------------------| 
----3--3--1--3--3--1----|-------------------|---------------3--3b---| 
------------------------|----------------2--|----2----2--5----------| 
------------------------|-------------------|-----------------------| 
------------------------|-------------------|-----------------------| 
------------------------|-------------------|-----------------------| 
 
                                                                  
---------------------|-----------------------|------------------| 
------------3b-5--5--|------3--1--3--3--1~---|------------------| 
---------------------|-----------------------|------------------| 
---------------------|-----------------------|------------------| 
---------------------|-----------------------|------------------| 
---------------------|-----------------------|------------------| 
 
                                                                      
----3-----3----3-----3--|-------------------|-----------------------| 
-------5----------5-----|----------------5--|----3--1--3----3--1~---| 
------------------------|-------------------|-----------------------| 
------------------------|-------------------|-----------------------| 
------------------------|-------------------|-----------------------| 
------------------------|-------------------|-----------------------| 
 
                                                                  
-------------------|------------------------|-------------------| 
----------------3b-|----3--1--3----3--1--3b-|----------------3b-| 
-------------------|------------------------|-------------------| 
-------------------|------------------------|-------------------| 
-------------------|------------------------|-------------------| 
-------------------|------------------------|-------------------| 
 
                                                               
-----------------------| 
----3--1--3----5--1~---| 
-----------------------| 
-----------------------| 
-----------------------| 
-----------------------| 
 
                                                                      
------------------------|-------------------|-----------------------| 
------------1--3--1--3b-|----------------3r-|----3---3---3---3---3--| 
----2----2--------------|-------------------|-----------------------| 
------------------------|-------------------|-----------------------| 
------------------------|-------------------|-----------------------| 
------------------------|-------------------|-----------------------| 
 
                                                                      
------------------3/-|----0--0-----0-----0-1-0--|-------------------| 
--1~-----------1-----|----------3-----3---------|-------------------| 
---------------------|--------------------------|----------------5--| 
---------------------|--------------------------|-------------------| 
---------------------|--------------------------|-------------------| 
---------------------|--------------------------|-------------------| 
 
                                                                       
------------------------|----------------3--|------3--3--3--3--3--3--| 
----3--3b-3----3--1-----|----------------5--|------3--1--3--3--3--1--| 
---------------------2--|-------------------|------------------------| 
------------------------|-------------------|------------------------| 
------------------------|-------------------|------------------------| 
------------------------|-------------------|------------------------| 
 
                                                                
--2----------------|---------------------|--------2--------3--| 
-------------------|------------------1--|--------2--------3--| 
--2~---------------|----------2--4-------|--------------------| 
-------------------|---------------------|--------------------| 
-------------------|---------------------|--------------------| 
-------------------|---------------------|--------------------| 
 
                                                                        
----3----3----------|----3--3--3--3--3--3--3--|--3--3----3---3-2------| 
----1----3b---------|----5--3--1--3--1--3--1--|--3b-3b---3---1--------| 
--------------------|-------------------------|----------------2------| 
--------------------|-------------------------|-----------------------| 
--------------------|-------------------------|-----------------------| 
--------------------|-------------------------|-----------------------| 
 
                                                                             
------------5---5---3--|--5---3--5---3--5---5-----5~--|--------------3--3--| 
------------10--10--8--|--10--8--10--8--10--10----10--|--------------3--3--| 
-----------------------|------------------------------|--------------------| 
-----------------------|------------------------------|--------------------| 
-----------------------|------------------------------|--------------------| 
-----------------------|------------------------------|--------------------| 
 
                                                                      
--5-----3--3----0------|------------0--3--5--|----5--3--5/-------3--| 
--10----8--3----1~-----|---------------------|----------------------| 
-----------------------|---------------------|----------------------| 
-----------------------|---------------------|----------------------| 
-----------------------|---------------------|----------------------| 
-----------------------|---------------------|----------------------| 
 
                                                                    
--5--5--3----------------|---------------------|------------------| 
-----------3r---1--3--1--|----3----1--1r-------|------------------| 
-------------------------|---------------------|------------------| 
-------------------------|---------------------|------------------| 
-------------------------|---------------------|------------------| 
-------------------------|---------------------|------------------| 
 
                                                                      
-----------------------|-------------------|------------------------| 
--------------3-----3b-|----------------3r-|----3--3--1--3--3--1----| 
------2----5-----5-----|-------------------|------------------------| 
-----------------------|-------------------|------------------------| 
-----------------------|-------------------|------------------------| 
-----------------------|-------------------|------------------------| 
 
                                                                   
-------------------|-----------------------|---------------------| 
-------------------|---------------3--3b---|------------3b-5--5--| 
----------------2--|----2----2--5----------|---------------------| 
-------------------|-----------------------|---------------------| 
-------------------|-----------------------|---------------------| 
-------------------|-----------------------|---------------------| 
 
                                                               
-----------------------| 
------3--1--3--3--3~---| 
-----------------------| 
-----------------------| 
-----------------------| 
-----------------------| 
 
                                                                    
------3--3--3--3--3--3--|--2----------------|---------------------| 
------3--1--3--3--3--1--|-------------------|------------------1--| 
------------------------|--2~---------------|----------2--4-------| 
------------------------|-------------------|---------------------| 
------------------------|-------------------|---------------------| 
------------------------|-------------------|---------------------| 
 
                                                                     
--------2--------3--|----3----3----------|----3--3--3--3--3--3--3--| 
--------2b-------3--|----1----3b---------|----5--3--1--3--1--3--1--| 
--------------------|--------------------|-------------------------| 
--------------------|--------------------|-------------------------| 
--------------------|--------------------|-------------------------| 
--------------------|--------------------|-------------------------| 
 
                                                                               
--3--3----3---3-2------|------------5--5---3--|--5---3--5---3--5---5-----5~--| 
--3b-3b---3---1--------|---------------10--8--|--10--8--10--8--10--10----10--| 
----------------2------|----------------------|------------------------------| 
-----------------------|----------------------|------------------------------| 
-----------------------|----------------------|------------------------------| 
-----------------------|----------------------|------------------------------| 
 
                                                                   
--------------------|--5----3--------------|------------0--3--5--| 
--------------3--3--|----------3----1~-----|---------------------| 
--------------------|----------------------|---------------------| 
--------------------|----------------------|---------------------| 
--------------------|----------------------|---------------------| 
--------------------|----------------------|---------------------| 
 
                                                                        
----5--3--5/-------3--|--5--5--3----------------|---------------------| 
----------------------|-----------3r---1--3--1--|----3----1--1r-------| 
----------------------|-------------------------|---------------------| 
----------------------|-------------------------|---------------------| 
----------------------|-------------------------|---------------------| 
----------------------|-------------------------|---------------------| 
 
                                                              
------------------|-----------------------|-------------------| 
------------------|--------------3-----3b-|----------------3r-| 
------------------|------2----5-----5-----|-------------------| 
------------------|-----------------------|-------------------| 
------------------|-----------------------|-------------------| 
------------------|-----------------------|-------------------| 
 
                                                                      
------------------------|-------------------|-----------------------| 
----3--3--1--3--3--1----|-------------------|---------------3--3b---| 
------------------------|----------------2--|----2----2--5----------| 
------------------------|-------------------|-----------------------| 
------------------------|-------------------|-----------------------| 
------------------------|-------------------|-----------------------| 
 
                                                                  
---------------------|-----------------------| 
------------------1--|----3--1--3r---1-------| 
------------2--2-----|---------------2--2~---| 
---------------------|-----------------------| 
---------------------|-----------------------| 
---------------------|-----------------------| 

		  

See also:

tabs Yngwie Malmsteen - Casting Pearls Before The Swine tabs Yngwie Malmsteen - Evil Eye tabs Yngwie Malmsteen - Caught in the Middle tabs Yngwie Malmsteen - Too Young To Die, Too Drunk To Live tabs Yngwie Malmsteen - Carry on Wayward Son tabs The Hellacopters - Hopeless case of a kid in denial
e-chords

Other versions:

tabs The Hellacopters - Turn The Wrong Key
auto scroll beats size up size down change color hide chords drawings
tab show chords e-chords YouTube Clip e-chords hide all tabs e-chords go to top tab

share