The Hellacopters

Soulseller

The Hellacopters

tabs Easy easy

by  TONHOTKD

save to print version add songbook text version e-mail correct tuner
chordsukulelecavacokeyboardtabbassdrumsharmonicaflute Guitar Pro
close

there isn't a video lesson for this song

chords

Soulseller

	  		SONG Title: Soulseller / Paying the dues 
ARTIST/GROUP:  Hellacopters 
TRANSCRIBED By: Bollo 
 
 
Intro riff git. 1  (8 times) 
 
e|--------------------------------------| 
B|--------------------------------------| 
G|--5-5-5--------3----------------------| 
D|--5-5-5----1h3---3p1-1----------------| 
A|--3-3-3--3----------------------------| 
E|--------------------------------------| 
 
 
Git. 2 intro joining after  3 times 
 
e|----------------6---------------------| 
B|------------4h6---6p4-4---------------| 
G|---------5---------------5-5-5--------| 
D|-------------------------5-5-5-  and so on... 
A|-------------------------3-3-3--------| 
E|--------------------------------------| 
 
 
 
Soulseller 
 
D#      A#    F         C 
Lookin' out i come your way 
im a dog and im astray 
ive been taught but i won't learn 
been out of luck but baby it will turn 
 
     G#   D# A#   F 
so i sold my soul again 
and i cant turn back cuz its the place i put my damned self in 
and i will sell my soul to you 
what i need has long been overdue 
 
blast my way with raging speed 
beelzebub give me what i need 
dont wanna wait to what comes around 
goota hear it now i gotta grab that sound 
 
i call it gold some call it vile 
but to place my bets on consulation prices 
just aint my style 
ive gotta get sixsixsix ive gotta go 
wont burn with me when i make that show 
 
 
soulseller - got a sell for you  (played like Chorus) 
 
 
 
 

		  

Full key step upFull key step up
Half key step upHalf key step up
Half key step downHalf key step down
Full key step downFull key step down
hide glossary

See also:

tabs Yngwie Malmsteen - Casting Pearls Before The Swine tabs Yngwie Malmsteen - Evil Eye tabs Yngwie Malmsteen - Caught in the Middle tabs Yngwie Malmsteen - Too Young To Die, Too Drunk To Live tabs Yngwie Malmsteen - Carry on Wayward Son tabs The Hellacopters - Hopeless case of a kid in denial
e-chords

Other versions:

tabs The Hellacopters - Soulseller
auto scroll beats size up size down change color hide chords drawings
tab show chords e-chords YouTube Clip e-chords hide all tabs e-chords go to top tab

share