The Hellacopters

Toys and Flavors

The Hellacopters

tabs Easy easy

by  TONHOTKD

save to print version add songbook text version e-mail correct tuner
chordsukulelecavacokeyboardtabbassdrumsharmonicaflute Guitar Pro
close

there isn't a video lesson for this song

chords

Toys and Flavors

	  		e#||------|------|------|----------------------|--------------------| 
A#||------|------|------|----------------------|--9-----------------| 
F#||------|------|------|----------------11-11-|--11b---------------| 
C#||------|------|------|----------------------|--------------------| 
G#||------|------|------|----------------------|--------------------| 
D#||------|------|------|----------------------|--------------------| 
 
 
                                                                  
---------------------|--------------------|---------------------| 
---------------------|--------------------|---------------------| 
------------11r---9--|--------------------|---------------------| 
---------------------|--11~---------------|------------------9--| 
---------------------|--------------------|--------------11-----| 
---------------------|--------------------|---------------------| 
 
 
                                                       
-----------------------|-----------------------------| 
-----------------------|-----------------------------| 
--------------------9--|------11--9--11b-11h9-----9--| 
--11----------11-------|----------------------11-----| 
-----------------------|-----------------------------| 
-----------------------|-----------------------------| 
 
 
                                                              
-----------------------------|----9-------------------------| 
-----------------------------|-------12-------------12--14--| 
-----------------9----9--11b-|-----------11-9~--13----------| 
--11--------9-11---11--------|------------------------------| 
-----------------------------|------------------------------| 
-----------------------------|------------------------------| 
 
 
                                                           
----------------------------|----------------------------| 
--14----14----14----14--14--|----14--14----14----14--14--| 
----------------------------|----------------------------| 
----------------------------|----------------------------| 
----------------------------|----------------------------| 
----------------------------|----------------------------| 
 
 
                                                                           
--12--9------9------9--12--9------12--14--12--|--14b---14b-14~-----12----| 
---------12-----12------------12--------------|--------------------------| 
----------------------------------------------|--------------------------| 
----------------------------------------------|--------------------------| 
----------------------------------------------|--------------------------| 
----------------------------------------------|--------------------------| 
 
 
                                                                         
-----------------------|-----------------------|-----------------------| 
-----------------------|-----------------------|-----------------------| 
--6----6----4--6----2--|----2-------4----------|--6----6-------6----2--| 
--6----6----4--6----2--|----2--2----4-------4--|--6----6----4--6----2--| 
--4----4----x--4----0--|----0--2----2-------2--|--4----4----4--4----0--| 
-----------------------|-------0---------4-----|-----------------------| 
 
 
                                                                         
-----------------------|-----------------------|-----------------------| 
-----------------------|-----------------------|-----------------------| 
----2-------4----------|--6----6----4--6----2--|----2-------4----------| 
----2--2----4-------4--|--6----6----4--6----2--|----2--2----4-------4--| 
----0--2----2-------2--|--4----4----x--4----0--|----0--2----2-------2--| 
-------0---------4-----|-----------------------|-------0---------4-----| 
 
 
                                                                         
-----------------------|-----------------------|-----------------------| 
-----------------------|-----------------------|-----------------------| 
--6----6----4--6----2--|----2-------4----------|--6----6----4--6----2--| 
--6----6----4--6----2--|----2--2----4-------4--|--6----6----4--6----2--| 
--4----4----x--4----0--|----0--2----2-------2--|--4----4----x--4----0--| 
-----------------------|-------0---------4-----|-----------------------| 
 
 
                                                                         
-----------------------|-----------------------|-----------------------| 
-----------------------|-----------------------|-----------------------| 
----2-------4----------|--6----6----4--6----2--|----2-------4----------| 
----2--2----4-------4--|--6----6----4--6----2--|----2--2----4-------4--| 
----0--2----2-------2--|--4----4----x--4----0--|----0--2----2-------2--| 
-------0---------4-----|-----------------------|-------0---------4-----| 
 
 
                                                                         
-----------------------|-----------------------|-----------------------| 
-----------------------|-----------------------|-----------------------| 
--6----6-------6----2--|----2-------4----------|--6----6----4--6----2--| 
--6----6----4--6----2--|----2--2----4-------4--|--6----6----4--6----2--| 
--4----4----4--4----0--|----0--2----2-------2--|--4----4----x--4----0--| 
-----------------------|-------0---------4-----|-----------------------| 
 
 
                                                                           
-----------------------|------------------------|------------------------| 
-----------------------|------------------------|------------------------| 
----2-------4----------|--6--6--6--4----4--6----|--6--6--6--4----4--6----| 
----2--2----4-------4--|--6--6--6--2----4--4----|--6--6--6--2----4--4----| 
----0--2----2-------2--|--4--4--4--2----2--4----|--4--4--4--2----2--4----| 
-------0---------4-----|------------------------|------------------------| 
 
 
                                                                                 
-------------------------|--------------------------|--------------------------| 
-------------------------|--------------------------|--------------------------| 
--6--6--6--4----4--6--6--|--6--6--6--4--4--4--6--6--|--6--6--6--4--4--4--6--6--| 
--6--6--6--2----4--4--4--|--6--6--6--2--2--4--4--4--|--6--6--6--2--2--4--4--4--| 
--4--4--4--2----2--4--4--|--4--4--4--2--2--2--4--4--|--4--4--4--2--2--2--4--4--| 
-------------------------|--------------------------|--------------------------| 
 
 
                                                                           
--------------------------|--------------------------|-------------------| 
--------------------------|--------------------------|-------------------| 
--6--6--6--4--4--4--6--6--|--6--6--6--6--6--6--6--6--|--6----------------| 
--6--6--6--2--2--4--4--4--|--6--6--6--6--6--6--6--6--|--6----------------| 
--4--4--4--2--2--2--4--4--|--4--4--4--4--4--4--4--4--|--4----------------| 
--------------------------|--------------------------|-------------------| 
 
 
                                                                                
--------------------------|----------0----0--0-----|--------------------------| 
--------------------------|----------0----0--0-----|--------------------------| 
-----------------------6--|----6--6--1----1--1-----|--4--4--4--4--4--6--6--6--| 
--7--7--7--7--7--7--7--6--|----6--6--2----2--2--2--|--4--4--4--4--4--4--4--6--| 
--7--7--7--7--7--7--7--4--|----4--4--2----2--2--0--|--2--2--2--2--2--4--4--4--| 
--5--5--5--5--5--5--5-----|----------0----0--0-----|--------------------------| 
 
 
                                                                             
-------------------------|-----------------------|-------------------------| 
-------------------------|-----------------------|-------------------------| 
----6--6--6--6--6--6--6--|--2----2----2-------4--|----4--4--4--4--6--6-----| 
----6--6--6--6--6--6--6--|--2----2----2--2----4--|----4--4--4--4--4--4--4--| 
----4--4--4--4--4--4--4--|--0----0----0--2----2--|----2--2--2--2--4--4--2--| 
-------------------------|---------------0-------|-------------------------| 
 
 
                                                                        
--------------------------|-------------------|-----------------------| 
--------------------------|-------------------|-----------------------| 
--6--6--6--4--4--4--6--6--|--6----------------|--6----6----4--6----2--| 
--6--6--6--2--2--4--4--4--|--6----------------|--6----6----4--6----2--| 
--4--4--4--2--2--2--4--4--|--4----------------|--4----4----x--4----0--| 
--------------------------|-------------------|-----------------------| 
 
 
                                                                            
-----------------------|--------------------------|-----------------------| 
-----------------------|--------------------------|-----------------------| 
----2-------4----------|--6--6--6--6--6--6--6--2--|----2-------4----------| 
----2--2----4----------|--6--6--6--6--6--6--6--2--|----2--2----4----------| 
----0--2----2-------2--|--4--4--4--4--4--4--4--0--|----0--2----2-------2--| 
-------0---------4-----|--------------------------|-------0---------4-----| 
 
 
                                                                            
-----------------------|-----------------------|--------------------------| 
-----------------------|-----------------------|--------------------------| 
--6----6----4--6----2--|----2-------4----------|--6--6--6--6--6--6--6--2--| 
--6----6----4--6----2--|----2--2----4----------|--6--6--6--6--6--6--6--2--| 
--4----4----4--4----0--|----0--2----2-------2--|--4--4--4--4--4--4--4--0--| 
-----------------------|-------0---------4-----|--------------------------| 
 
 
                                                                               
-----------------------|--------------------------|--------------------------| 
-----------------------|--------------------------|--------------------------| 
----2-------4----------|--6--6--6--4--4--4--6--6--|--6--6--6--4--4--4--6--6--| 
----2--2----4----------|--6--6--6--2--2--4--4--4--|--6--6--6--2--2--4--4--4--| 
----0--2----2-------2--|--4--4--4--2--2--2--4--4--|--4--4--4--2--2--2--4--4--| 
-------0---------4-----|--------------------------|--------------------------| 
 
 
                                                       
--------------------------|--------------------------| 
--------------------------|--------------------------| 
--6--6--6--4--4--4--6--6--|--6--6--6--4--4--4--6--6--| 
--6--6--6--2--2--4--4--4--|--6--6--6--2--2--4--4--4--| 
--4--4--4--2--2--2--4--4--|--4--4--4--2--2--2--4--4--| 
--------------------------|--------------------------| 
 
 
                                                       
--------------------------|--------------------------| 
--------------------------|--------------------------| 
--6--6--6--4--4--4--6--6--|--6--6--6--4--4--4--6--6--| 
--6--6--6--2--2--4--4--4--|--6--6--6--2--2--4--4--4--| 
--4--4--4--2--2--2--4--4--|--4--4--4--2--2--2--4--4--| 
--------------------------|--------------------------| 
 
 
                                                                         
--------------------------|---------------------|----------------------| 
--------------------------|---------------------|----------------------| 
--6--6--6--6--6--6--6--6--|--6------------------|--2----2----2------6--| 
--6--6--6--6--6--6--6--6--|--6------------------|--2----2----2------6--| 
--4--4--4--4--4--4--4--4--|--4------------------|--0----0----0------4--| 
--------------------------|---------------12/---|----------------------| 
 
 
                                                                               
---------------0--0-----|--------------------------|-------------------------| 
----------0----0--0-----|--------------------------|-------------------------| 
----6--6--1----1--1-----|--4--4--4--4--4--6--6--6--|----6--6--6--6--6--6--6--| 
----6--6--2----2--2--2--|--4--4--4--4--4--4--4--6--|----6--6--6--6--6--6--6--| 
----4--4--2----2--2--0--|--2--2--2--2--2--4--4--4--|----4--4--4--4--4--4--4--| 
----------0----0--0-----|--------------------------|-------------------------| 
 
 
                                                                              
-----------------------|-------------------------|--------------------------| 
-----------------------|-------------------------|--------------------------| 
--2----2----2-------4--|----4--4--4--4--6--6-----|--6--6--6--4--4--4--6--6--| 
--2----2----2--2----4--|----4--4--4--4--4--4--4--|--6--6--6--2--2--4--4--4--| 
--0----0----0--2----2--|----2--2--2--2--4--4--2--|--4--4--4--2--2--2--4--4--| 
---------------0-------|-------------------------|--------------------------| 
 
 
                                                                          
-------------------|--------------------------|-------------------------| 
-------------------|--12----11------12----11--|----9----11r---9---------| 
--6----------------|--11----11------11----11--|----9----11r---9---------| 
--6----------------|--11----11------11----11--|------------------11--9--| 
--4----------------|--9-----9-------9-----9---|-------------------------| 
-------------------|--------------------------|-------------------------| 
 
 
                                                         
--------------------------|----------------------------| 
--------------------------|----------------------------| 
--------------------------|----------------------------| 
--11----11----9--11----9--|--11----11--9----11--11--9--| 
--11----11----9--11----9--|--11----11--9----11--11--9--| 
--9-----9-----9--9-----9--|--9-----9---9----9---9---9--| 
 
 
                                                                              
-------------------------|------------------------|-------------------------| 
--12----11------12-------|------------------------|----------9------9----9--| 
--11----11------11-------|------------------------|----------9------9----9--| 
--11----11------11----7--|----7--7--9----9--9--9--|--11--11-----------------| 
--9-----9-------9-----7--|----7--7--9----9--9--9--|--11--11-----------------| 
----------------------5--|----5--5--7----7--7--7--|--9---9------------------| 
 
 
                                                        
---------------------------|--------------------------| 
--11r---9--------9--9------|--12----11------12----11--| 
--11r---9--------9--9------|--11----11------11----11--| 
-----------11~---------11--|--11----11------11----11--| 
---------------------------|--9-----9-------9-----9---| 
---------------------------|--------------------------| 
 
 
                                                            
-------------------------|--------------------------------| 
----9----11r---9---------|--------------------------------| 
----9----11r---9---------|--------------------------------| 
------------------11--9--|--11--11--11--11--9--11--11--9--| 
-------------------------|--11--11--11--11--9--11--11--9--| 
-------------------------|--9---9---9---9---9--9---9---9--| 
 
 
                                                        
--9--9------9---9--9--9--9--|-------------------------| 
--------12b-14-----------9--|-------------------------| 
----------------------------|----------------------4--| 
----------------------------|--7--7--7--7--7--2----4--| 
----------------------------|--7--7--7--7--7--2----2--| 
----------------------------|--5--5--5--5--5--0-------| 
 
 
                                                                  
-------------------------|-------------------|------------------| 
-------------------------|-------------------|------------------| 
----4--4--4--4--6--6-----|--6----------------|------------------| 
----4--4--4--4--4--4--4--|--6----------------|------------------| 
----2--2--2--2--4--4--2--|--4----------------|------------------| 
-------------------------|-------------------|------------------| 
 
 
                                                        
--9~-------9-----------|------------------------------| 
--------------12-------|--------12--14--14----14--12--| 
--------------------9--|----13------------------------| 
-----------------------|------------------------------| 
-----------------------|------------------------------| 
-----------------------|------------------------------| 
 
 
                                                              
--------------------------14b-|----14--12-------------------| 
--14b---14b---14r-----12------|------------14----12~--------| 
------------------13----------|----------------------16/-x--| 
------------------------------|-----------------------------| 
------------------------------|-----------------------------| 
------------------------------|-----------------------------| 
 
 
                                                               
--------16----------14---------|--9--------9-----------------| 
--14--------14/-12------12--9--|--------------12-------------| 
-------------------------------|-----11b----------11b-11--9--| 
-------------------------------|-----------------------------| 
-------------------------------|-----------------------------| 
-------------------------------|-----------------------------| 
 
 
                                                           
--------------------------14b-|----14--12----------------| 
---------------12b-12--9------|------------14----12~-----| 
----11b-11--9-----------------|--------------------------| 
------------------------------|--------------------------| 
------------------------------|--------------------------| 
------------------------------|--------------------------| 
 
 
                                                                            
-----------------------|-----------------------|--------------------------| 
-----------------------|-----------------------|--------------------------| 
--6----6----4--6----2--|----2-------4----------|--6--6--6--6--6--6--6--2--| 
--6----6----4--6----2--|----2--2----4----------|--6--6--6--6--6--6--6--2--| 
--4----4----x--4----0--|----0--2----2-------2--|--4--4--4--4--4--4--4--0--| 
-----------------------|-------0---------4-----|--------------------------| 
 
 
                                                                         
-----------------------|-----------------------|-----------------------| 
-----------------------|-----------------------|-----------------------| 
----2-------4----------|--6----6----4--6----2--|----2-------4----------| 
----2--2----4----------|--6----6----4--6----2--|----2--2----4----------| 
----0--2----2-------2--|--4----4----x--4----0--|----0--2----2-------2--| 
-------0---------4-----|-----------------------|-------0---------4-----| 
 
 
                                                                               
--------------------------|-----------------------|--------------------------| 
--------------------------|-----------------------|--------------------------| 
--6--6--6--6--6--6--6--2--|----2-------4----------|--6--6--6--4--4--4--6--6--| 
--6--6--6--6--6--6--6--2--|----2--2----4----------|--6--6--6--2--2--4--4--4--| 
--4--4--4--4--4--4--4--0--|----0--2----2-------2--|--4--4--4--2--2--2--4--4--| 
--------------------------|-------0---------4-----|--------------------------| 
 
 
                                                       
--------------------------|--------------------------| 
--------------------------|--------------------------| 
--6--6--6--4--4--4--6--6--|--6--6--6--4--4--4--6--6--| 
--6--6--6--2--2--4--4--4--|--6--6--6--2--2--4--4--4--| 
--4--4--4--2--2--2--4--4--|--4--4--4--2--2--2--4--4--| 
--------------------------|--------------------------| 
 
 
                                                       
--------------------------|--------------------------| 
--------------------------|--------------------------| 
--6--6--6--4--4--4--6--6--|--6--6--6--4--4--4--6--6--| 
--6--6--6--2--2--4--4--4--|--6--6--6--2--2--4--4--4--| 
--4--4--4--2--2--2--4--4--|--4--4--4--2--2--2--4--4--| 
--------------------------|--------------------------| 
 
 
                                                                             
--------------------------|--------------------------|---------------------| 
--------------------------|--------------------------|---------------------| 
--6--6--6--4--4--4--6--6--|--6--6--6--6--6--6--6--6--|--6------------------| 
--6--6--6--2--2--4--4--4--|--6--6--6--6--6--6--6--6--|--6------------------| 
--4--4--4--2--2--2--4--4--|--4--4--4--4--4--4--4--4--|--4------------11----| 
--------------------------|--------------------------|---------------9/----| 
 
 
                                                                            
----------------------|------------------0-----|--------------------------| 
----------------------|----------0----0--0-----|--------------------------| 
--2----2----2------6--|----6--6--1----1--1-----|--4--4--4--4--4--6--6--6--| 
--2----2----2------6--|----6--6--2----2--2--2--|--4--4--4--4--4--4--4--6--| 
--0----0----0------4--|----4--4--2----2--2--0--|--2--2--2--2--2--4--4--4--| 
----------------------|----------0----0--0-----|--------------------------| 
 
 
                                                                             
-------------------------|-----------------------|-------------------------| 
-------------------------|-----------------------|-------------------------| 
----6--6--6--6--6--6--6--|--2----2----2-------4--|----4--4--4--4--6--6-----| 
----6--6--6--6--6--6--6--|--2----2----2--2----4--|----4--4--4--4--4--4--4--| 
----4--4--4--4--4--4--4--|--0----0----0--2----2--|----2--2--2--2--4--4--2--| 
-------------------------|---------------0-------|-------------------------| 
 
 
                                                                            
--------------------------|--------------------------|--------------------| 
--------------------------|--------------------------|--17~---------------| 
--6--6--6--4--4--4--6--6--|--6--6--6--6--6--6--6--6--|--------------------| 
--6--6--6--2--2--4--4--4--|--6--6--6--6--6--6--6--6--|--------------------| 
--4--4--4--2--2--2--4--4--|--4--4--4--4--4--4--4--4--|--------------------| 
--------------------------|--------------------------|--------------------| 
 
 
                                                   
------------------|------------------------------| 
------------------|--19~---19~---19--19--19------| 
------------------|--------------------------18~-| 
------------------|------------------------------| 
------------------|------------------------------| 
------------------|------------------------------| 
 
 
                                                               
--------------------------------|--------19--19----19--------| 
------------------------17--19--|--19b-------19b-------19b---| 
----18--18--18--18--18----------|----------------------------| 
--------------------------------|----------------------------| 
--------------------------------|----------------------------| 
--------------------------------|----------------------------| 
 
 
                                  
--19--19----19------------------| 
------19b-------19--17----------| 
------------------------18--16--| 
--------------------------------| 
--------------------------------| 
--------------------------------| 
 
 
                                                    
--19-21-21-21-21-21-21-21-21-21-21-21-21-21-21-19-| 
--------------------------------------------------| 
--------------------------------------------------| 
--------------------------------------------------| 
--------------------------------------------------| 
--------------------------------------------------| 
 
 
                                                    
--21-21-21-21-21-21-21-21-21-21-21-21-21-21-21-21-| 
--------------------------------------21-21-21-21-| 
--------------------------------------------------| 
--------------------------------------------------| 
--------------------------------------------------| 
--------------------------------------------------| 
 
 
                                                    
--19-21-21-21-21-21-21-21-21-21-21-21-21-21-21-21-| 
--21-21-21-21-21-21-21-21-21----------------------| 
--------------------------------------------------| 
--------------------------------------------------| 
--------------------------------------------------| 
--------------------------------------------------| 
 
 
                                                    
--19-21-21-21-21-21-21-21-21-21-21-21-21-21-21-19-| 
--------------------------21-21-21-21-21-21-21-21-| 
--------------------------------------------------| 
--------------------------------------------------| 
--------------------------------------------------| 
--------------------------------------------------| 
 
 
                                                    
--21-21-21-21-21-21-21-21-21-21-21-21-21-21-21-21-| 
--21-21-21-21-21-21-21-21-21----------------------| 
--------------------------------------------------| 
--------------------------------------------------| 
--------------------------------------------------| 
--------------------------------------------------| 
 
 
                                                    
--21-21-21-21-21-21-21-21-21-21-21-21-21-21-21-19-| 
--21----------------------21-21-21-21-21-21-21-21-| 
--------------------------------------------------| 
--------------------------------------------------| 
--------------------------------------------------| 
--------------------------------------------------| 
 
 
                                                                         
--19-21-21-21-21-21-21-21-21-21-21-21-21-21-21-21-|--21~---------------| 
--21-21-21-21-21-21-21-21-21----------------------|--21~---------------| 
--------------------------------------------------|--------------------| 
--------------------------------------------------|--------------------| 
--------------------------------------------------|--------------------| 
--------------------------------------------------|--------------------| 
 
 
 

		  

See also:

tabs Yngwie Malmsteen - Casting Pearls Before The Swine tabs Yngwie Malmsteen - Evil Eye tabs Yngwie Malmsteen - Caught in the Middle tabs Yngwie Malmsteen - Too Young To Die, Too Drunk To Live tabs Yngwie Malmsteen - Carry on Wayward Son tabs The Hellacopters - Hopeless case of a kid in denial
e-chords

Other versions:

tabs The Hellacopters - Toys and Flavors
auto scroll beats size up size down change color hide chords drawings
tab show chords e-chords YouTube Clip e-chords hide all tabs e-chords go to top tab

share