The Hellacopters

The devil stole the beat from the lord ( Ver.2)

The Hellacopters

tabs

by  TONHOTKD

save to print version add songbook text version e-mail correct tuner
chordsukulelecavacokeyboardtabbassdrumsharmonicaflute Guitar Pro
close

there isn't a video lesson for this song

chords

The devil stole the beat from the lord ( Ver.2)

	  		HELLACOPTERS - THE DEVIL STOLE THE BEAT FROM THE LORD 
 
STDR. TUNING. AND A WHOLE LOTTA ÖS. 
 
THIS IS HOW I PLAY THIS SONG 
 
 - let ring a little 
 - me ring you loong time tenn dollass 
/ - slide 
/// - pickslide 
h - hammeron 
p - pull off (or what its called) 
* read comment 
 
-of course you have to listen to the song to get the rythm and timing etc right- 
 
INTRO: 
 
e |------------------------------------------------------------|  
B |------------------------------------------------------------| 
G |--6-6--4-6-4--------------4-6-6--4-6-4-9-11-9-11-9--------4-| 
D |--6-6--4-6-4--6-6-6-4-2--4-6-6--4-6-4-9-11-9-11-9------6-4-| 
A |--4-4---------6-6-6-4-2--2-4-4--------------------11-9-6---| 
E |------------------------------------------------------------| 
 
e |-------------------------------------------------------|  
B |-------------------------------------------------------| 
G |-6-6--4-6-4---------------9---9-------11-11-11-6///| 
D |-6-6--4-6-4--6-6-6-4-2/--9-9-9-9-9/*-11-11-11-6///| 
A |-4-4---------6-6-6-4-2/--7-9-7-9-9/*-9--9--9--4///| 
E |----------------------------7---7-7/*------------------| 
 
e |-----------------------------------------------------------|  
B |-----------------------------------------------------------| 
G |-6-6--4-6-4--------------4-6-6--4-6-4-9-11-9-11-9--------4-| 
D |-6-6--4-6-4--6-6-6-4-2--4-6-6--4-6-4-9-11-9-11-9------6-4-| 
A |-4-4---------6-6-6-4-2--2-4-4--------------------11-9-6---| 
E |-----------------------------------------------------------| 
 
e |----------------------------------------|  
B |----------------------------------------| 
G |-6-6--4-6-4---------------4-6-6-9-9-----| 
D |-6-6--4-6-4--6-6-6-4-2/--4-6-6-9-9-9-| 
A |-4-4---------6-6-6-4-2/--2-4-4-7-7-9-| 
E |------------------------------------7-| 
*not really a slide, but something like it. 
 
VERSE: 
e |---------------------------------------------------------------|  
B |---------------------------------------------------------------| 
G |-*99-----11-11-6-6-11-11-6--9-9-9-9-----11-11-6-6-11-11-6-6-| 
D |-*99-9-9-11-11-6-6-11-11-6--9-9-9-9-9-9-11-11-6-6-11-11-6-6-| 
A |-*77-9-9-9--9--4-4-9--9--4--7-7-7-7-9-9-9--9--4-4-9--9--4-4-| 
E |-------7-7-----------------------------7-7---------------------| 
 
e |-----------------------------------------------------------------|  
B |-----------------------------------------------------------------| 
G |-*9-9-9-9-----11-11-6-6-11-11-6-6--9-9-9-9-----11-11-66-6-6-6-6-| 
D |-*9-9-9-9-9-9-11-11-6-6-11-11-6-6--9-9-9-9-9-9-11-11-66-6-6-6-6-| 
A |-*7-7-7-7-9-9-9--9--4-4-9--9--4-4--7-7-7-7-9-9-9--9--44-4-4-4-4-| 
E |----------7-7------------------------------7-7-------------------| 
* change the rhytm along the verse                        ||Palm mute|| 
 
PRE-Chorus: 
e |--------------------------------------------|  
B |--------------------------------------------| 
G |-9---6-6-6--6-6--6-6--9---6-6-6--6-6--6-6-| 
D |-9-9-6-6-6--6-6--6-6--9-9-6-6-6--6-6--6-6-| 
A |-7-9-4-4-4--4-4--4-4--7-9-4-4-4--4-4--4-4-| 
E |---7---------------------7------------------| 
 
e |-----------------------------------|  
B |-----------------------------------| 
G |-9---6-6-6--6-6--6-6--9-----------| 
D |-9-9-6-6-6--6-6--6-6--9-9-6///| 
A |-7-9-4-4-4--4-4--4-4--7-9-6///| 
E |---7---------------------7-4///| 
 
Chorus: 
e |----------------------------------------|  
B |----------------------------------------| 
G |-------------------------9--------------| 
D |-7-7-7-7-11-11-11-11-9-9-9-9-11-12-11-9-| 
A |-7-7-7-7-11-11-11-11-9-9-7-9-11-12-11-9-| 
E |-5-5-5-5-9--9--9--9--7-7---7-9--10-9--7-|  
 
e |---------------------------------------------|  
B |---------------------------------------------| 
G |-------------------------9-9-----9-9-----9---| 
D |-7-7-7-7-11-11-11-11-9-9-9-9-9-9-9-9-9---9-9-| 
A |-7-7-7-7-11-11-11-11-9-9-7-7-9-9-7-7-9---7-9-| 
E |-5-5-5-5-9--9--9--9--7-7-----7-7-----7-----7-| 
 
INTRO AGAIN: 
e |-----------------------------------------------------------|  
B |-----------------------------------------------------------| 
G |-6-6--4-6-4--------------4-6-6--4-6-4-9-11-9-11-9--------4-| 
D |-6-6--4-6-4--6-6-6-4-2--4-6-6--4-6-4-9-11-9-11-9------6-4-| 
A |-4-4---------6-6-6-4-2--2-4-4--------------------11-9-6---| 
E |-----------------------------------------------------------| 
 
e |----------------------------------------|  
B |----------------------------------------| 
G |-6-6--4-6-4---------------4-6-6-9-9-----| 
D |-6-6--4-6-4--6-6-6-4-2/--4-6-6-9-9-9-| 
A |-4-4---------6-6-6-4-2/--2-4-4-7-7-9-| 
E |------------------------------------7-| 
 
VERSE 2: 
e |---------------------------------------------------------------|  
B |---------------------------------------------------------------| 
G |-*99-----11-11-6-6-11-11-6--9-9-9-9-----11-11-6-6-11-11-6-6-| 
D |-*99-9-9-11-11-6-6-11-11-6--9-9-9-9-9-9-11-11-6-6-11-11-6-6-| 
A |-*77-9-9-9--9--4-4-9--9--4--7-7-7-7-9-9-9--9--4-4-9--9--4-4-| 
E |-------7-7-----------------------------7-7---------------------| 
 
e |-----------------------------------------------------------------|  
B |-----------------------------------------------------------------| 
G |-*9-9-9-9-----11-11-6-6-11-11-6-6--9-9-9-9-----11-11-66-6-6-6-6-| 
D |-*9-9-9-9-9-9-11-11-6-6-11-11-6-6--9-9-9-9-9-9-11-11-66-6-6-6-6-| 
A |-*7-7-7-7-9-9-9--9--4-4-9--9--4-4--7-7-7-7-9-9-9--9--44-4-4-4-4-| 
E |----------7-7------------------------------7-7-------------------| 
                                                         ||Palm mute|| 
"And they have you playin´ such devious games" 
 
A |-7-7-777h9-9-999p7-------| 
E |-------------------9-| 
 
for other licks and stuff just play something in C#,  
B works also i think... (not good at theory :P) 
 
PRE-Chorus 2: 
e |--------------------------------------------|  
B |--------------------------------------------| 
G |-9---6-6-6--6-6--6-6--9---6-6-6--6-6--6-6-| 
D |-9-9-6-6-6--6-6--6-6--9-9-6-6-6--6-6--6-6-| 
A |-7-9-4-4-4--4-4--4-4--7-9-4-4-4--4-4--4-4-| 
E |---7---------------------7------------------| 
 
e |-----------------------------------|  
B |-----------------------------------| 
G |-9---6-6-6--6-6--6-6--9-----------| 
D |-9-9-6-6-6--6-6--6-6--9-9-6///| 
A |-7-9-4-4-4--4-4--4-4--7-9-6///| 
E |---7---------------------7-4///| 
 
Chorus 2: 
e |----------------------------------------|  
B |----------------------------------------| 
G |-------------------------9--------------| 
D |-7-7-7-7-11-11-11-11-9-9-9-9-11-12-11-9-| 
A |-7-7-7-7-11-11-11-11-9-9-7-9-11-12-11-9-| 
E |-5-5-5-5-9--9--9--9--7-7---7-9--10-9--7-|  
 
e |---------------------------------------------|  
B |---------------------------------------------| 
G |-------------------------9-9-----9-9-----9---| 
D |-7-7-7-7-11-11-11-11-9-9-9-9-9-9-9-9-9---9-9-| 
A |-7-7-7-7-11-11-11-11-9-9-7-7-9-9-7-7-9---7-9-| 
E |-5-5-5-5-9--9--9--9--7-7-----7-7-----7-----7-| 
 
INTRO RIFF (SOLO ON TOP OF IT) 
e |------------------------------------------------------------|  
B |------------------------------------------------------------| 
G |--6-6--4-6-4--------------4-6-6--4-6-4-9-11-9-11-9--------4-| 
D |--6-6--4-6-4--6-6-6-4-2--4-6-6--4-6-4-9-11-9-11-9------6-4-| 
A |--4-4---------6-6-6-4-2--2-4-4--------------------11-9-6---| 
E |------------------------------------------------------------| 
 
e |-------------------------------------------------------|  
B |-------------------------------------------------------| 
G |-6-6--4-6-4---------------9---9------11-11-11-6---| 
D |-6-6--4-6-4--6-6-6-4-2/--9-9-9-9-9/-11-11-11-6---| 
A |-4-4---------6-6-6-4-2/--7-9-7-9-9/-9--9--9--4---| 
E |----------------------------7---7-7/------------------| 
 
BRIDGE: 
not correct but something like this. 
e |-------------------------------------------------------------------|  
B |-------------------------------------------------------------------| 
G |-------------------------------9-9-11------------------------------| 
D |---7---7--------11----11-9---9---9-9-------11p9--fool around with--| 
A |-----7---7---11----11------9-9--------9h11-11p9--these notes-------| 
E |-5-----------------------------------------------------------------| 
 
PRE-Chorus 3: 
e |--------------------------------------------|  
B |--------------------------------------------| 
G |-9---6-6-6--6-6--6-6--9---6-6-6--6-6--6-6-| 
D |-9-9-6-6-6--6-6--6-6--9-9-6-6-6--6-6--6-6-| 
A |-7-9-4-4-4--4-4--4-4--7-9-4-4-4--4-4--4-4-| 
E |---7---------------------7------------------| 
 
e |----------------------------------|  
B |----------------------------------| 
G |-9---6-6-6--6-6--6-6--9----------| 
D |-9-9-6-6-6--6-6--6-6--9-9-66/| 
A |-7-9-4-4-4--4-4--4-4--7-9-66/| 
E |---7---------------------7-44/| 
 
Chorus 3: 
e |----------------------------------------|  
B |----------------------------------------| 
G |-------------------------9--------------| 
D |-7-7-7-7-11-11-11-11-9-9-9-9-11-12-11-9-| 
A |-7-7-7-7-11-11-11-11-9-9-7-9-11-12-11-9-| 
E |-5-5-5-5-9--9--9--9--7-7---7-9--10-9--7-|  
 
e |----------------------------------------|  
B |----------------------------------------| 
G |-------------------------9-9-----9-9-???| to tired to  
D |-7-7-7-7-11-11-11-11-9-9-9-9-9-9-9-9-???| figure this 
A |-7-7-7-7-11-11-11-11-9-9-7-7-9-9-7-7-???| out 
E |-5-5-5-5-9--9--9--9--7-7-----7-7-----???| 
 
OUTRO: 
not correct either but something like this 
e |------------------------------------------|  
B |------------------------------------------| 
G |-6-6--4-6-4----------4-4--2-4-2-----------| 
D |-6-6--4-6-4--6-4-2--4-4--2-4-2-4-2-2----| 
A |-4-4---------6-4-2--2-2--------4-2-2----| 
E |------------------------------------0----| 
Repeat this like 3-4 times and end on C# 
This is Hellacopters best song if you ask me! 
GL 
 

		  

Full key step upFull key step up
Half key step upHalf key step up
Half key step downHalf key step down
Full key step downFull key step down
hide glossary

See also:

tabs Yngwie Malmsteen - Casting Pearls Before The Swine tabs Yngwie Malmsteen - Evil Eye tabs Yngwie Malmsteen - Caught in the Middle tabs Yngwie Malmsteen - Too Young To Die, Too Drunk To Live tabs Yngwie Malmsteen - Carry on Wayward Son tabs The Hellacopters - Hopeless case of a kid in denial
e-chords

Other versions:

tabs The Hellacopters - The devil stole the beat from the lord tabs The Hellacopters - The devil stole the beat from the lord ( Ver.2)
auto scroll beats size up size down change color hide chords drawings
tab show chords e-chords YouTube Clip e-chords hide all tabs e-chords go to top tab

share