The Hellacopters

Pride

The Hellacopters

tabs Beginner beginner

by  TONHOTKD

save to print version add songbook text version e-mail correct tuner
chordsukulelecavacokeyboardtabbassdrumsharmonicaflute Guitar Pro
close

there isn't a video lesson for this song

chords

Pride

	  		Tabbed in standard tuning 
 
Intro/theme(varies a bit): 
|------------------------------------------------------------------------------------ 
|--9--9--9-------------------9--9--9---------------------9--9--9--------------------- 
|--11b11b11br-----9-------9--11b11b11br---9--------------11b11b11br----9------------- 
|--------------11----11-----------------11-11p9-----9h11-------------11----11--9-9h11- 
|----------------------------------------------11------------------------------------ 
|------------------------------------------------------------------------------------ 
 
|------------------------------ 
|------------------------------ 
|------------------------------ 
|--11p9----9h11p9-------------- 
|-------11-------11p9h11p9-7--- 
|------------------------------ 
 
Verse: 
|------------------------------- 
|------------------------------- 
|--------9-9-4-4-4/6-6-6-------- 
|-11-11--9-9-4-4-4/6-6-6-------- 
|-11-11--7-7-2-2-2/4-4-4-------- 
|-9--9-------------------------- 
 
 
in the end of the verse chop: 
|------------------------------- 
|------------------------------- 
|-2------------4---------------- 
|-2------------4---------------- 
|-0------------2---------------- 
|------------------------------- 
 
Chorus: 
 
|---------------------------------------------- 
|---------------------------------------------- 
|-6x6--9x9---6x6--x9-9---6/4/6--9--11---------- 
|-6x6--9x9---6x6--x9-9---6/4/6--9--11---------- 
|-4x4--7x7---4x4--x7-7---4/2/4--7--9----------- 
|---------------------------------------------- 
 
 

		  

See also:

tabs Yngwie Malmsteen - Casting Pearls Before The Swine tabs Yngwie Malmsteen - Evil Eye tabs Yngwie Malmsteen - Caught in the Middle tabs Yngwie Malmsteen - Too Young To Die, Too Drunk To Live tabs Yngwie Malmsteen - Carry on Wayward Son tabs The Hellacopters - Hopeless case of a kid in denial
e-chords

Other versions:

tabs Saliva - Pride tabs Seether - Pride tabs Shaaman - Pride tabs Shaman - Pride tabs The Hellacopters - Pride tabs U2 - Pride
auto scroll beats size up size down change color hide chords drawings
tab show chords e-chords YouTube Clip e-chords hide all tabs e-chords go to top tab

share