The Hellacopters

By the grace of god

The Hellacopters

tabs

save to print version add songbook text version e-mail correct tuner
chordsukulelecavacokeyboardtabbassdrumsharmonicaflute Guitar Pro
close

there isn't a video lesson for this song

chords

By the grace of god

	  		 
Hey girl you'll landed 
You got supplies if they demand it 
You got the looks and the glamour 
cut by the chisel and beat by the hammer 
 
There naive so they beleave it  
and they will act like dog when they recieve it 
Though the darkness and the haze  
a straight and narrow fall from grace 
 
They need, they yearn 
they lust with cheeks unturned 
hands shake and heads will nod 
they get by by the grace of god. 
 
Hey boy you understand  
say your prayers or you'll be damned 
he's a watcher and a voyer  
bystander and destroyer 
 
They need, they yearn 
they lust with cheeks unturn 
hands shake and heads will nod 
they get by by the grace of god. 
 
yeh they get by 
 
SOLO 
 
They need, they yearn 
they lust with cheeks unturn 
hands shake and heads will nod 
they get by by the grace of god. 
 
yeh they get by by the grace of god 
we get by, we get by 
by the grace of god 
 
------- 
Standard tuning 
 
 
Introdução: 
(É acompanhada pela base: G#  E   C#  E) 
 
e--------11--------------------------------------11---------------------- 
B----12-----12----------------------------12--------12-------------------- 
G-13---13------13----------------------13----13--------13----------------- 
D------------------13/14--13--------------------------------13/14-13------- 
A---------------------------14--11----------------------------------14-11-- 
E-------------------------------------------------------------------------- 
 
e-------------11--------------------------------------11---------------------- 
B---------12-----12----------------------------12--------12-------------------- 
G--11--13---13------13----------------------13----13--------13----------------- 
D-----------------------13/14--13--------------------------------13/14-13------- 
A--------------------------------14--11----------------------------------14-11-- 
E------------------------------------------------------------------------------- 
 
e--------11--------------------------------------11---------------------- 
B----12-----12----------------------------12--------12-------------------- 
G-13---13------13----------------------13----13--------13----------------- 
D------------------13/14--13--------------------------------13/14-13------- 
A---------------------------14--11----------------------------------14-11-- 
E-------------------------------------------------------------------------- 
 
e-------------11----------------------------------------11---------------------- 
B---------12-----12------------------------------12--------12-------------------- 
G--11--13---13------13--------------------11--13----13--------13----------------- 
D-----------------------13/14--13----------------------------------13/14-13------- 
A--------------------------------14--11------------------------------------14-11-- 
E--------------------------------------------------------------------------------- 
 
 
 
Riff 1   
(É tocado durante o refrão e algumas outras partes da musica.É acompanhado pela base: G#  E   C#  E) 
 
e--------11--------------------------------------11---------------------- 
B----12-----12----------------------------12--------12-------------------- 
G-13---13------13----------------------13----13--------13----------------- 
D------------------13/14--13--------------------------------13/14-13------- 
A---------------------------14--11----------------------------------14-11-- 
E-------------------------------------------------------------------------- 
 
Vers/Chorus 
	G#	E 	C#	E 
 
e|---------------------------------- 
B|---------------------------------- 
G|--------------9-------6----------- 
D|------6-------9-------6-------2--- 
A|------6-------7-------4-------2--- 
E|------4-----------------------0--- 
 
PRE Chorus - Cord change tempo twise the verse during Riff 1 
    G#	E5  C#	E 
 
e|------------------ 
B|------------------ 
G|------9---6------- 
D|--6---9---6---2--- 
A|--6---7---4---2--- 
E|--4-----------0--- 
 
 
SOLO 
   G#		    E      	C#	     	 E 
 
e|-----------11-----------------------14------------------------ 
B|----12-------12---------------14b16---16r14-12-14b16r14-12---- 
G|--13--13---------------------------------------------------13- 
D|-----------------13/14---------------------------------------- 
A|-----------------------14--11------------------------------- 
E|-------------------------------------------------------------- 
 
   G#		   E    	     C#		         E 
 
e|-----------11----------------------16b-16b-16b-16b-16b-16b------ 
B|----12-------12------------------------------------------------- 
G|--13--13----------------------------------------------------13-- 
D|----------------13/14--13--------------------------------------- 
A|---------------------------14--11------------------------------- 
E|---------------------------------------------------------------- 
 
   G#	    E   	 	       C#	 		E 
e|----------------------------------------------------------------------- 
B|------------------------------------------14b16r14-12----------12------ 
G|-11h13----13p11---------------------11-13-------------13-11-13----13--- 
D|-----------------13p11--------11h13------------------------------------ 
A|-----------------------14-11------------------------------------------- 
E|----------------------------------------------------------------------- 
 
 		G#		  E     	C#		   
e|-------14-11-------------------------------14b16-14b16-14b16r14- 
B|----12-------14-12---14p12--12-14b-14b-14b---------------------- 
G|-13----------------13-----13------------------------------------ 
D|---------------------------------------------------------------- 
A|---------------------------------------------------------------- 
E|---------------------------------------------------------------- 
 
    E 
e|-19b21-19b21-19b21-19b21r19------------ 
B|---------------------------19-14-12---- 
G|------------------------------------13- 
D|--------------------------------------- 
A|--------------------------------------- 
E|--------------------------------------- 
 
 
_______________________________________________________ 
Contribuição: Fhillip L. Rodrigues([email protected]) 
Correção: Bruno de Oliveira Naves Diniz ([email protected]) 

		  

Full key step upFull key step up
Half key step upHalf key step up
Half key step downHalf key step down
Full key step downFull key step down
hide glossary

See also:

tabs Yngwie Malmsteen - Casting Pearls Before The Swine tabs Yngwie Malmsteen - Evil Eye tabs Yngwie Malmsteen - Caught in the Middle tabs Yngwie Malmsteen - Too Young To Die, Too Drunk To Live tabs Yngwie Malmsteen - Carry on Wayward Son tabs The Hellacopters - Hopeless case of a kid in denial
e-chords

Other versions:

tabs The Hellacopters - By the grace of god
auto scroll beats size up size down change color hide chords drawings
tab show chords e-chords YouTube Clip e-chords hide all tabs e-chords go to top tab

share