Tété

La Relance

Tété

tabs nolevel nolevel

by  BRUNBLAZKOWSKI

save to print version add songbook text version e-mail correct tuner
chordsukulelecavacokeyboardtabbassdrumsharmonicaflute Guitar Pro
close

there isn't a video lesson for this song

chords

La Relance

	  		E||-------------------------|-------------------------|-------------------------| 
B||----------x---------x----|-------x------------x----|-------x---------x-------| 
G||----------x---------x----|-------x------------x----|-------x---------x-------| 
D||----------x---------x----|-------x------------x----|-------x---------x-------| 
A||--7----7--x---------x----|-------x----7--7----x----|--6----x---------x----7--| 
E||--0-------7----5----7----|--8----5------------7----|-------7----8----7-------| 
                                                                               
-------------------------|-------------------------|-------------------------| 
-------x---------x-------|----------x---------x----|-------x------------x----| 
-------x----2----x-------|----------x---------x----|-------x------------x----| 
-------x----1----x----1--|----------x---------x----|-------x------------x----| 
-------x----2----2----2--|--7----7--x---------x----|-------5----5-------x----| 
--5----2-----------------|--0-------7----5----7----|--8------------3----3----| 
                                                           refrain 
                                                                                              
----------------------------|----------------------------|----------------------------------| 
----------x---------x-------|-------x------------x-------|----------x---------------x-------| 
----------x---------x-------|-------2------------x-------|--2-------x---------------x-------| 
-------x--x---------x-------|-------1----2----2--x----2--|--1----1--x----1--2----2--x----2--| 
--6----6------------x----7--|--7----2----2-------x-------|--2-------2-------2-------2-------| 
----------7----8----7-------|--5----x----0---------------|------------------0---------------| 
		  

See also:

tabs Tété - Le Meilleur Des Mondes tabs Tété - La Relance tabs Tété - Le Sacre Des Lemmings (interlude) tabs Soko - Sweet Sound Of Ignorance tabs Lara Fabian - Love By Grace tabs Tété - Le Magicien
e-chords

Other versions:

tabs Tété - La Relance
auto scroll beats size up size down change color hide chords drawings
tab show chords e-chords YouTube Clip e-chords hide all tabs e-chords go to top tab

share with facebook