Tété

Eleanor Rigby

Tété

tabs nolevel nolevel

by  BRUNBLAZKOWSKI

save to print version add songbook text version e-mail correct tuner
chordsukulelecavacokeyboardtabbassdrumsharmonicaflute Guitar Pro
close

there isn't a video lesson for this song

chords

Eleanor Rigby

	  		intro : 

    Em                                                         D      	 
F#|---------------------------------------------------1-------------| 
C#|---3-------3---3---3---------3---3----3--------3-------3---------| 
A |-------2-------------------2-----------------2-------------------| 
E |-0-------0-------0-------0---------0-------0---------0-----X-----| 
B |-----0-------0-------0-X-------0-------0-X-------0-------0---3-3-| 
F#|-----------------------------------------------------------------| 

    Em                                                           D
F#|-----------------------------------1--------------------------------| 
C#|-----3---3---3---3---3---------3--------3---------3---3---3---------| 
A |---2-------------------------2------------------2-------------------| 
E |-0---------0-------0-------0---------0--------0---------0-----X-----| 
B |-------0-------0-------0-X-------0--------0-X-------0-------0---3-3-| 
F#|--------------------------------------------------------------------| 

couplet : 
    Em                                                  D     C
F#|---------------------------------------------------------------------------| 
C#|-------3---------3---------3---------3---------3---------------------------| 
A |-----2---------2---------2---------2---------2-------0-----0---------------| 
E |-0-0-------0-0-------0-0-------0-0-------0-0-------------------X-----X-----| 
B |---------0---------0---------0---------0---------0-3-----1-------1---------| 
F#|-------------------------------------------------------3-----1-----1---0-1-| 

      Eleanor Rigby, picks up the rice in a church where a wedding has been, lives in 

    Em                                                       D      C		      Em
F#|---------------------------------------------------------------------------------------------| 
C#|-----3---------3---------3---------3---------3---------3---------------------------------3---| 
A 
		  

Full key step upFull key step up
Half key step upHalf key step up
Half key step downHalf key step down
Full key step downFull key step down
hide glossary

See also:

tabs Tété - Le Meilleur Des Mondes tabs Tété - La Relance tabs Tété - Le Sacre Des Lemmings (interlude) tabs Soko - Sweet Sound Of Ignorance tabs Lara Fabian - Love By Grace tabs Tété - Le Magicien
e-chords

Other versions:

tabs Tété - Eleanor Rigby tabs The Beatles - Eleanor Rigby tabs Josh Turner - Eleanor Rigby
auto scroll beats size up size down change color hide chords drawings
tab show chords e-chords YouTube Clip e-chords hide all tabs e-chords go to top tab

share with facebook