Tété

A La Faveur De L'automne

Tété

tabs Beginner beginner

by  BRUNBLAZKOWSKI

save to print version add songbook text version e-mail correct tuner
chordsukulelecavacokeyboardtabbassdrumsharmonicaflute Guitar Pro
close

there isn't a video lesson for this song

chords

A La Faveur De L'automne

	  		C                 Em 
E|--------------------------------------------------0--0-----| 
B|-----0-------0-------0------0---------------0-----0--0-----| 
G|---0-------0-------0------0---------0-----2---2---0--0-----| 
D|-2-----2-1-----1-0----0s3-----3---2---2-1---------2--0h2---| 
A|--------------------------------3-----------------2--2-----| 
E|--------------------------------------------------0--0-----| 
Posté devant la fenêtre je guette les âmes ésseulées A la faveur de l'automne 

                    C         G    
E|----------------------------------------------------------| 
B|-----0-------0-------0-------0---------------0---3--------| 
G|---0-------0-------0-------0---------0-----2---2-0--------| 
D|-2-----2-1-----1-0-----0s3-----3---2---2-1-------0--0-4-0-| 
A|---------------------------------3---------------2--------| 
E|-------------------------------------------------3--------| 
Posté devant la fenêtre je regrette de n'y avoir songer maintenant que tu abandonnes 

   C  G/B  Am           C   G/B Am 
E|-0-------0----------------------0-------0-------------------------| 
B|-1--3----1----------------------1---3---1-------------------------| 
G|-0--0----2----------0-2---------0---0---2-------------------------| 
D|-2--0----2--------0-----2-0-----2---0---2------------5-7p5--------| 
A|-3--2----0------------------3-2-3---2---0--------5s7-------7-5----| 
E|------------------------------------------------------------------| 
A la faveur de l'automne revient cette douce mélancolie. 
1, 2, 3 ,4 un peu comme on fredonne de meilleures mélodies 
   G               Em 
		  

Full key step upFull key step up
Half key step upHalf key step up
Half key step downHalf key step down
Full key step downFull key step down
auto scroll beats size up size down change color hide chords drawings
tab show chords e-chords YouTube Clip e-chords hide all tabs e-chords go to top tab

share