Temas de TV

home > Temas de TV

The Pink Panther Tab

Temas de TV

Difficulty: nolevelnolevel

by gustsilva

tuner correct add songbook print version text version save to e-mail
chordsukulelecavacokeyboardtabbassdrumsharmonicsflute Guitar Pro
chords

The Pink Panther

  		 
|--------------------|2|------------|------------| 
|--------------------|v|------------|------------| 
|--------------------|e|------------|------------| 
|--------6-/7-8-/9---|z|--8-/7-6-/5-|--6-/7-8-/9-| 
|--------4-/5-6-/7---|e|--6-/5-4-/3-|--4-/5-6-/7-| 
|--------------------|s|------------|------------| 
 

 
|-----------------|--0----2-3------|0-----8-7---3-7-| 
|---------------4-|------------0-4-|--7-8-----5-----| 
|-----------------|----------------|----------------| 
|----------6-/7---|-----x----------|--4-5-----------| 
|----------4-/5-6-|-----x---2------|----------------| 
|-----------------|--0--x----------|0---------------| 
 

 
|-6--------5-3-----|-----------------|-0----2-3------| 
|----5---------5-3-|-5----5--------4-|-----------0-4-| 
|----3-------------|------3----------|---------------| 
|------5-----------|----5-----6-/7---|----x----------| 
|-3----------------|-3--------4-/5-6-|----x---2------| 
|--------3---------|--------3--------|-0--x----------| 
 

 
|-0-------8-/7---3-12-|-11-------------------|-------------------| 
|---7--/8------5------|-----10-10---10----10-|-------10--------4-| 
|---------------------|------8--8----8-----8-|-------------------| 
|---------------------|----------------10----|----10------6-/7-6-| 
|---9-/10-------------|--8-------------------|-8----------4-/5---| 
|-0-------------------|-----------8----------|----------8--------| 
 

 
|-0----2-3------|-0------8-/7---3-7-|-6--------5-3-----| 
|-----------0-4-|---7-/8------5-----|----5---------5-3-| 
|---------------|-------------------|----3-------------| 
|----x----------|---4-/5------------|------5-----------| 
|----x---2------|-------------------|-3----------------| 
|-0--x----------|-0-----------------|--------3---------| 
 

|---------------|-0---11-/12-10------------|----------------------------| 
|-5----5---5----|-0-------------12-10------|-11/10--11/10--11/10--11/10-|	 
|------3---3----|-0-------------------12-9-|----------------------------| 
|----5-------5--|-2------------------------|----------------------------| 
|-3-------------|-2------------------------|----------------------------| 
|--------3------|-0------------------------|----------------------------| 

 
|-3-0---0-0-0-------|-3-0---0-0---------|-3-0---0-0---------| 
|-----3-----0-------|-----3-----x-------|-----3-----x-------| 
|-------------------|-----------x-------|-----------x-------| 
|-------------1-0---|-----------x---0-1-|-----------x-1-0---| 
|-----------------4-|-3-----------4-----|-----------------4-| 
|-0-----------------|-------------------|-0-----------------| 
 

 
|-3-0---0-0----------|-3-0---0-0-0------|-------------------| 
|-----3-----x-----4--|-----3------------|-------------------| 
|-----------x--------|------------------|-------------------| 
|-------------6-7----|------------------|-------------------| 
|-3-----------4-5-6--|-3----------------|------2-2-7-7-6-6--| 
|--------------------|------------------|--0-0--------------| 
 

 
|------------------|-----------------|--0------7------|-6-------5-3-0---| 
|------------------|---------------0-|----------------|---------------3-| 
|------------------|-----------------|----------------|-----------------| 
|------------------|-----------------|----------------|-----------------| 
|-5-5-4-4-3-3-2-2--|-5-5-4-4-3-3-2---|--------7-7-6-6-|-5-5-4-4-3---2---| 
|------------------|-----------------|--0--7-7--------|-----------------| 
 

 
|-0---0---0-------|-----------------|-0-------7-------|-6-------5-3-0---| 
|---0---3---3-0---|-0-------------0-|-----------------|---------------3-| 
|---------------2-|-----------------|-----------------|-----------------| 
|---------2---1---|-0-0-------------|-----------------|-----------------| 
|-----2-2---------|-----4-4-3-3-2---|---------7-7-6-6-|-5-5-4-4-3-3-2---| 
|-0---------------|-----------------|-0-0-7-7---------|-----------------| 
 

|-0---0---0-0---0-|------------------|-0---0---0-0---0-|------0----| 
|---------5-5---5-|---0-0-0-0-0-0-0--|---------5-5---5-|------4----| 
|-----------------|---2-2-2-2-2-2----|-----------------|------0----| 
|-----------------|---1-1-1-1-1-1----|-----------------|------4----| 
|-----------------|---2-2-2-2-2-2----|-----------------|------2----| 
|-0---0---3-2---0-|------------------|-0---2---3-2---0-|------0----| 
	  

Search Paypal
auto scroll beats size up size down change color hide chords drawings
tab show chords e-chords YouTube Clip e-chords hide all tabs e-chords go to top tab