Temas de Filmes

home > Temas de Filmes

The Father (deixe Ela Entrar) Tab

Temas de Filmes

Difficulty: nolevelnolevel

by bombaXXX

tuner correct add songbook print version text version save to e-mail
chordsukulelecavacokeyboardtabbassdrumsharmonicsflute Guitar Pro
chords

The Father (deixe Ela Entrar)

	  Parte 1: 

 
B|-----------------------7/9--| 
G|-----0----------0-----------| 
D|---0---0------0---0---------| 
A|-0----------0---------------| 
 

Parte 2: 

 
B|-----------------------9-7--| 
G|-----0----------0-----------| 
D|---0---0------0---0---------| 
A|-0----------0---------------| 
 

Parte 3: 

 
B|-7/9-9-7-7/5--| 
G|--------------| 
D|--------------| 
A|--------------| 
	  

Search Paypal
auto scroll beats size up size down change color hide chords drawings
tab show chords e-chords YouTube Clip e-chords hide all tabs e-chords go to top tab