Temas de Filmes

home > Temas de Filmes

Escola de Rock Tab

Temas de Filmes

Difficulty: BeginnerBeginner

by peretto

tuner correct add songbook print version text version save to e-mail
chordsukulelecavacokeyboardtabbassdrumsharmonicsflute Guitar Pro
chords

Escola de Rock

	  Temas de Filmes _ Escola de Rock 
Tom: E 
 
(essa é a música do Diwin Finz, a que eles ensaiam  
mas é substituida pela do Zack) 
 
 
BASE: 
 
   E   D   C  B  D 
   |   |   |  |  | 
e|---|---|---------| 
B|---|---|---------| 
G|---|---|---------| 
D|-9-|-7-|-5--4--7-| 
A|-7-|-5-|-3--2--5-| 
E|---|---|---------| 
 
 
 
 
 
 
Frase (passagem do D para o E) 
 
e|-------------------| 
B|---------15-15-----| 
G|-14b-14b-------14b-| 
D|-------------------| 
A|-------------------| 
E|-------------------| ---> entrar direto no E 
 
(esta frase é executada pelo Zack, com uma guitarra limpa) 
 
 
_________________________________________________ 
 
 
 

	  

Full key step upFull key step up
Half key step upHalf key step up
Half key step downHalf key step down
Full key step downFull key step down
Search Paypal
auto scroll beats size up size down change color hide chords drawings
tab show chords e-chords YouTube Clip e-chords hide all tabs e-chords go to top tab