Temas de Filmes

home > Temas de Filmes

Harry Potter (Theme Song) Tab

Temas de Filmes

Difficulty: BeginnerBeginner

by P%21ATD

tuner correct add songbook print version text version save to e-mail
chordsukulelecavacokeyboardtabbassdrumsharmonicsflute Guitar Pro
chords

Harry Potter (Theme Song)

	  (1ªparte)  
e ---0-3-2----0-7-5-2----0-3-2----1----|  
B -0----------------------------3---0--|  
G -------------------------------------|  
D -------------------------------------|  
A -------------------------------------|  
E -------------------------------------|  

(2ªparte)  
e ---0-3-2-0-7-10----9-8--5-8---7-6---3-0-|  
B -0--------------------------------0-----|  
G ----------------------------------------|  
D ----------------------------------------|  
A ----------------------------------------|  
E ----------------------------------------|  

(Final)  
e -3-7--3-7---10---9-7-8-----3-0-|  
B ------------------------0------|  
G -------------------------------|  
D -------------------------------|  
A -------------------------------|  
E -------------------------------|  


	  

there isn't a video lesson for this song

request
Search
auto scroll beats size up size down change color hide chords drawings
tab show chords e-chords YouTube Clip e-chords hide all tabs e-chords go to top tab