Temas de Filmes

home > Temas de Filmes

Caça Fantasmas Tab

Temas de Filmes

Difficulty: IntermediateIntermediate

by rordaque

tuner correct add songbook print version text version save to e-mail
chordsukulelecavacokeyboardtabbassdrumsharmonicsflute Guitar Pro
chords

Caça Fantasmas

	  Parte principal ( Aquela que todo mundo conhece) 
 
E|--------------------------------- 
B|--------------------------------- 
G|------8---6---------------------- 
D|--9-9---9---7----9-9-9-9-7-9----- 
A|--------------------------------- 
E|--------------------------------- 
 
e|--------------------------------- 
B|--------------------------------- 
G|------8---6---------------------- 
D|--9-9---9---7----9-9-9-9-7-11-9-- 
A|--------------------------------- 
E|--------------------------------- 
 
Refrão 
 
e|---------------------------------------- 
B|---------------------------------------- 
G|--7-----7-----7-----7-----7------------- 
D|-----9-----9-----9-----9-----9---7-8-9-- 
A|---------------------------------------- 
E|---------------------------------------- 
 

	  

there isn't a video lesson for this song

request
Search Paypal
auto scroll beats size up size down change color hide chords drawings
tab show chords e-chords YouTube Clip e-chords hide all tabs e-chords go to top tab