Temas de Filmes

home > Temas de Filmes

Um Tira da Pesada (Eddie Murphy) Tab

Temas de Filmes

Difficulty: ExpertExpert

tuner correct add songbook print version text version save to e-mail
chordsukulelecavacokeyboardtabbassdrumsharmonicsflute Guitar Pro
chords

Um Tira da Pesada (Eddie Murphy)

	  Um Tira da Pesada (Eddie Murphy) 
 
Todas as notas abaixo em "staccato" - tocadas e abafadas em seguida, ñ 
 deixando soar - a ñ ser o último fá 
 
e|-----------------------------------------------------------13-----------------------| 
B|-----------------11------------13---------14-13---------13--------------------------| 
G|--10--13---10-10----10------10------10-10-------13---10---------10--8-8----12--10~--| 
D|-----------------------13-----------------------------------------------10----------| 
A|------------------------------------------------------------------------------------| 
E|------------------------------------------------------------------------------------| 
 
Outro acompanhamento que rola durante o filme junto com essa levada são 
 essas oitavas (tb tocadas e abafadas): 
 
       F(2x)        F(2x)         C#       D#       F 
e|------------------------------------------------------------------------------------| 
B|------------------------------------------------------------------------------------| 
G|----10--10-------10--10---------6--------8--------10~~------------------------------| 
D|----x---x--------x---x----------x--------x--------x---------------------------------| 
A|----8---8--------8---8----------4--------6--------8~~-------------------------------| 
E|------------------------------------------------------------------------------------| 

	  

Full key step upFull key step up
Half key step upHalf key step up
Half key step downHalf key step down
Full key step downFull key step down
Search Paypal
auto scroll beats size up size down change color hide chords drawings
tab show chords e-chords YouTube Clip e-chords hide all tabs e-chords go to top tab