Temas de Filmes

home > Temas de Filmes

Indiana Jones Tab

Temas de Filmes

Difficulty: BeginnerBeginner

tuner correct add songbook print version text version save to e-mail
chordsukulelecavacokeyboardtabbassdrumsharmonicsflute Guitar Pro
chords

Indiana Jones

	  Indiana Jones - The theme 
Tabbed by Ahmed Al Hilali 
 
I didn't include tied notes because it would look messy 
 
|----3------------------------1-------------0----------------0-1-----| 
|-------1------------------0--------0-1--3------------1---3---------| 
|-----0----------------0-2--------2-----------------0-----------0-0-| 
|-2-3-------0-2-3------------------------------2-3------------------| 
|---------------------------6-5-------------------------------------| 
|-----------------------------------12/15-------------------------------| 
| 
|-0------0------0------0--------------------------------------------| 
|---3------3------3------3------------------------------------------| 
|------0------0------0----------------------------------------------| 
|--------------------------------------------2----------------------| 
|-------------------------------------------------------------------| 
|---------------------------0--3-1----1--0-3-------0--3-1----1--0-3-| 
| 
|-------------------1-------1-------1----------------------------3--| 
|-------------------------------------4-4-4-------4-------4--4-2-3--| 
|---------------------3-3-3---3-3-3---------1-1-1---1-1-1--------0--| 
|--------------2-------------------------------------------------0--| 
|----------------------------------------------------------------X--| 
|-1----1-1-0-3---1-3---------------------------------------------0--| 

	  

there isn't a video lesson for this song

request
Search Paypal
auto scroll beats size up size down change color hide chords drawings
tab show chords e-chords YouTube Clip e-chords hide all tabs e-chords go to top tab