System Of A Down

home > System Of A Down

Toxicity (Ver.2) Tab

System Of A Down

Difficulty: ExpertExpert

by Maicon%5FAm%5F

tuner correct add songbook print version text version save to e-mail
chordsukulelecavacokeyboardtabbassdrumsharmonicsflute Guitar Pro
chords

Toxicity (Ver.2)

  		Álbum: Toxicity   
Música: Toxicity    
  
Essa música é tocada na seguinte afinação: (C-G-C-F-A-D) 
 
Mas dá pra tocar na afinação padrão(E-B-G-D-A-E), só que de outra forma (!).  
Eu recomendo a primeira, que é correta e até mais fácil, mas de qualquer  
jeito, coloquei das duas formas... 
 
Ordem: 
 
INTRO 
Refrão 
VERSO 
Refrão 
VERSO 
Refrão 
PÓS-Refrão 
Refrão 
FINAL 
 
___________________________AFINAÇÃO PADRÃO_______________________________ 
 
 
INTRO:(Limpo e Abafado) 
e|---------------------------------------------------- 
B|---8---8---8---8---8---8-/--11--11--11--11--11--11-- 
G|-5---5---5---5---5---5---/-8---8---8---8---8---8---- 
D|---------------------------------------------------- 
A|---------------------------------------------------- 
E|---------------------------------------------------- 
 
e|-----------------------------------8---8-------------- 
B|---8---8---8-11--11-10--10---11---------11--11--9---9- 
B|-5---5---5------8------8----8---8----8-----8------8--- 
D|------------------------------------------------------ 
A|------------------------------------------------------ 
E|------------------------------------------------------ 
 
Refrão:(Distorção) 
   C         Eb D C D C        G#        G 
e|------------------------------------------------| 
B|------------------------------------------------| 
G|-5----------------------------------------------| 
D|-5---------8-7-5-7-5--------6--6-6-6--5--5-5-5--| 2X 
A|-3---------6-5-3-5-3--------6--6-6-6--5--5-5-5--| 
E|----------------------------4--4-4-4--3--3-3-3--| 
          {MUTED} 
   Eb D C D C C                G#        G 
e|--------------    ------------------------------| 
B|--------------    ------------------------------| 
G|--------------    ------------------------------| 
D|-8-7-5-7-5-5--    ----------6--6-6-6--5--5-5-5--| 
A|-6-5-3-5-3-3? 4x  ----------6--6-6-6--5--5-5-5--| 
E|--------------    ----------4--4-4-4--3--3-3-3--| 
   {PALM MUTED} 
   C         Eb D C D C        G#        G 
e|------------------------------------------------| 
B|------------------------------------------------| 
G|-5----------------------------------------------| 
D|-5---------8-7-5-7-5--------6--6-6-6--5--5-5-5--| 2X 
A|-3---------6-5-3-5-3--------6--6-6-6--5--5-5-5--| 
E|----------------------------4--4-4-4--3--3-3-3--| 
 
VERSO: 
 
e|---------------------------------------------------- 
B|---8---8---8---8---8---8-/--11--11--11--11--11--11-- 
G|-5---5---5---5---5---5---/-8---8---8---8---8---8---- 
D|---------------------------------------------------- 
A|---------------------------------------------------- 
E|---------------------------------------------------- 
 
e|---------------------------------8---8-------------- 
B|---8---8---8--9---9--8---8--10--------10--10--9---9- 
G|-5---5---5------5------5---8---8---8-----8------8--- 
D|---------------------------------------------------- 
A|---------------------------------------------------- 
E|---------------------------------------------------- 
 
e|--------------------------------10----11----10------ 
D|---8---8---8---8---8---8-/--11------11----11----11-- 
G|-5---5---5---5---5---5---/-8---8---8-----8-----8---- 
D|---------------------------------------------------- 
A|---------------------------------------------------- 
E|---------------------------------------------------- 
 
e|-----------------------------------8---8-------------- 
B|---8---8---8-11--11-10--10---11---------11--11--9---9- 
G|-5---5---5------8------8----8---8----8-----8------8--- 
D|------------------------------------------------------ 
A|------------------------------------------------------ 
E|------------------------------------------------------ 
 
e|--------------------------------10----11----10------ 
B|---8---8---8---8---8---8-/--11------11----11----11-- 
G|-5---5---5---5---5---5---/-8---8---8-----8-----8---- 
D|---------------------------------------------------- 
A|---------------------------------------------------- 
E|---------------------------------------------------- 
 
e|---------------------------------8---8-------------- 
B|---8---8---8--9---9--8---8--11--------11--11--9---9- 
G|-5---5---5------5------5---8---8---8-----8------8--- 
D|---------------------------------------------------- 
A|---------------------------------------------------- 
E|---------------------------------------------------- 
 
PÓS-Refrão: (Distorção) 
 
e|---------------------------------------------------- 
B|---------------------------------------------------- 
G|---------------------------------------------------- 
D|---------------------------------------------------- 2x 
A|-3---3-3-3-3-6-33-6^------3---3-3-3-3--6-33-5^------ 
E|---------------------------------------------------- 
 
e|----------------------------------------- 
B|----------------------------------------- 
G|----------------------------------------- x 2 
D|-875?5-5-5-775?5?5-5-875-5-5-5-775-5-5-5- 
A|-653-3-3-3-553-3-3-3-653-3-3-3-553-3-3-3- 
E|----------------------------------------- 
  {PALM MUTED...........................} 
 
e|------------------------ 
B|------------------------ 
G|------------------------ 
D|-5---5-5-5-5-885-------- 
A|-3---3-3-3-3-663-5^----- 4x 
E|------------------------ 
| {PALM MUTED...} 
 
 
e|------------------------------------------ 
B|------------------------------------------ 
G|------------------------------------------ 
D|-875-5-5-5-775-5-5-5-875-5-5-5-775-5-5-5-- x 2 
A|-653-3-3-3-553-3-3-3-653-3-3-3-553-3-3-3-- 
E|------------------------------------------ 
 | {PALM MUTED...........................} 
 
FINAL: (Distorção) 
 
e|------------------------------------------ 
B|------------------------------------------ 
G|------------------------------------------ 
D|-875-5-5-5-775-5-5-5-875-5-5-5-775-5-5-5-- x 2 
A|-653-3-3-3-553-3-3-3-653-3-3-3-553-3-3-3-- 
E|------------------------------------------ 
   {PALM MUTED...........................} 
 
e|------------------------- 
B|------------------------- 
G|------------------------- 
D|-5---5-5-5-5-885--------- 
A|-3---3-3-3-3-663-5^------ 4x 
E|------------------------- 
 
 
 
 
 
___________________________AFINAÇÃO USADA________________________________ 
 
 
INTRO:(Limpo e Abafado) 
D|---------------------------------------------------- 
A|--10--10--10--10--10--10-/--13--13--13--13--13--13-- 
F|-7---7---7---7---7---7---/10--10--10--10--10--10---- 
C|---------------------------------------------------- 
G|---------------------------------------------------- 
C|---------------------------------------------------- 
 
D|----------------------------------10--10-------------- 
A|--10--10--10-13--13-12--12---13---------13--13-11--11- 
F|-7---7---7-----10-----10---10--10---10----10-----10--- 
C|------------------------------------------------------ 
G|------------------------------------------------------ 
C|------------------------------------------------------ 
 
Refrão: (Distorção) 
   C         Eb D C D C        G#        G 
D|-----------------------------------------------| 
A|-----------------------------------------------| 
F|-----------------------------------------------| 
C|-0--------------------------8--8-8-8--7--7-7-7-| 2x 
G|-0---------3-2-0-2-0--------8--8-8-8--7--7-7-7-| 
C|-0---------3-2-0-2-0--------8--8-8-8--7--7-7-7-| 
          {MUTED} 
   Eb D C D C C                G#        G 
D|--------------   ------------------------------| 
A|--------------   ------------------------------| 
F|--------------   ------------------------------| 
C|--------------   -----------8-8-8-8--7--7-7-7--| 
G|-3-2-0-3-2-0? 4x -----------8-8-8-8--7--7-7-7--| 
C|-3-2-0-3-2-0--   -----------8-8-8-8--7--7-7-7--| 
   {PALM MUTED} 
   C         Eb D C D C        G#        G 
D|-----------------------------------------------| 
A|-----------------------------------------------| 
F|-----------------------------------------------| 
C|-0--------------------------8--8-8-8--7--7-7-7-| 
G|-0---------3-2-0-2-0--------8--8-8-8--7--7-7-7-| 
C|-0---------3-2-0-2-0--------8--8-8-8--7--7-7-7-| 
 
VERSO: (Limpo e Abafado) 
D|---------------------------------------------------- 
A|--10--10--10--10--10--10-/--13--13--13--13--13--13-- 
F|-7---7---7---7---7---7---/10--10--10--10--10--10---- 
C|---------------------------------------------------- 
G|---------------------------------------------------- 
C|---------------------------------------------------- 
 
D|--------------------------------10--10-------------- 
A|--10--10--10-11--11-10--10--13--------13--13-11--11- 
F|-7---7---7------7------7--10--10--10----10-----10--- 
C|---------------------------------------------------- 
G|---------------------------------------------------- 
C|----------------------------------------------------- 
 
D|--------------------------------12----13----12------ 
A|--10--10--10--10--10--10-/--13------13----13----13-- 
F|-7---7---7---7---7---7---/10--10--10----10----10---- 
C|---------------------------------------------------- 
G|---------------------------------------------------- 
C|---------------------------------------------------- 
 
D|--------------------------------10--10-------------- 
A|--10--10--10-11--11-10--10--13--------13--13-11--11- 
F|-7---7---7------7------7--10--10--10----10-----10--- 
C|---------------------------------------------------- 
G|---------------------------------------------------- 
C|---------------------------------------------------- 
 
D|--------------------------------12----13----12------ 
A|--10--10--10--10--10--10-/--13------13----13----13-- 
F|-7---7---7---7---7---7---/10--10--10----10----10---- 
C|---------------------------------------------------- 
G|---------------------------------------------------- 
C|---------------------------------------------------- 
 
D|--------------------------------10--10-------------- 
A|--10--10--10-11--11-10--10--13--------13--13-11--11- 
F|-7---7---7------7------7--10--10--10----10-----10--- 
C|---------------------------------------------------- 
G|---------------------------------------------------- 
C|---------------------------------------------------- 
 
PÓS-Refrão: (Distorção) 
D|---------------------------------------------------- 
A|---------------------------------------------------- 
F|---------------------------------------------------- 
C|-0---0-0-0-0-3-00-2^------0---0-0-0-0--3-00-2^------ x 2 
G|---------------------------------------------------- 
C|---------------------------------------------------- 
 
D|----------------------------------------- 
A|----------------------------------------- 
F|----------------------------------------- 
C|----------------------------------------- x 2 
G|-320-0-0-0-220-0-0-0-320-0-0-0-220-0-0-0- 
C|-320-0-0-0-220-0-0-0-320-0-0-0-220-0-0-0- 
   {PALM MUTED...........................} 
 
D|---------------------------------------------------- 
A|---------------------------------------------------- 
F|---------------------------------------------------- 
C|---------------------------------------------------- x 2 
G|-0---0-0-0-0-330----------0---0-0-0-0-330----------- 
C|-0---0-0-0-0-330-2^-------0---0-0-0-0-330-2^-------- 
   {PALM MUTED...}          {PALM MUTED...} 
 
D|----------------------------------------- 
A|----------------------------------------- 
F|----------------------------------------- 
C|----------------------------------------- x 2 
G|-320-0-0-0-220-0-0-0-320-0-0-0-220-0-0-0- 
C|-320-0-0-0-220-0-0-0-320-0-0-0-220-0-0-0- 
   {PALM MUTED...........................} 
 
FINAL: (Distorção) 
e|------------------------------------------ 
B|------------------------------------------ 
G|------------------------------------------ 
D|-875-5-5-5-775-5-5-5-875-5-5-5-775-5-5-5-- x 2 
A|-653-3-3-3-553-3-3-3-653-3-3-3-553-3-3-3-- 
E|------------------------------------------ 
   {PALM MUTED...........................} 
 
e|------------------------- 
B|------------------------- 
G|------------------------- 
D|-5---5-5-5-5-885--------- 
A|-3---3-3-3-3-663-5^------ 4x 
E|------------------------- 
  
  
 

	  

Full key step upFull key step up
Half key step upHalf key step up
Half key step downHalf key step down
Full key step downFull key step down
Search Paypal
auto scroll beats size up size down change color hide chords drawings
tab show chords e-chords YouTube Clip e-chords hide all tabs e-chords go to top tab