System Of A Down

Toxicity (ver. 3)

System Of A Down

tabs

save to print version add songbook text version e-mail correct tuner
chordsukulelecavacokeyboardtabbassdrumsharmonicaflute Guitar Pro
close

there isn't a video lesson for this song

chords

Toxicity (ver. 3)

	  		 
Parte I 
 
Introdução: 
(0:00-0:49) 
---5---5---5---5---5---5-----8---8---8---8---8---8------------------------| 
-3---3---3---3---3---3-----6---6---6---6---6---6--------------------------| 
--------------------------------------------------------------------------| 
--------------------------------------------------------------------------| 
--------------------------------------------------------------------------| 
--------------------------------------------------------------------------| 
--------------------------------------------------------------------------| 
 
---5---5---5---6---6--5---5---8---10---10--8---8---6---6------------------| 
-3---3---3---3---3------3---6---6----6-------6---6---6--------------------| 
--------------------------------------------------------------------------| 
--------------------------------------------------------------------------| 
--------------------------------------------------------------------------| 
--------------------------------------------------------------------------| 
 
|-------|---------------|---------|---------------------------------------| 
|-------|---------------|---------|---------------------------------------| 
|-------|---------------|---------|---------------------------------------| 
|-------|---------------|-8-------|-7-------------------------------------| 
|---0---|------------0--|-8-------|-7-------------------------------------| 
|---0---|--3-2--0-2--0--|-8-------|-7-------------------------------------| 
 
|------------------------------|---------|--------------------------------| 
|------------------------------|---------|--------------------------------| 
|------------------------------|---------|--------------------------------| 
|------------------------------|-8-------|-7------------------------------| 
|------------------------------|-8-------|-7------------------------------| 
|-3-2-0--2-0-0----3-2-0--2-0-0-|-8-------|-7------------------------------| 
 
 
************************************************************************** 
Parte II 
 
Tempo (0:49-1:13) 2x 
 
---5---5---5---5---5---5-----8---8---8---8---8---8---------------------------- 
-3---3---3---3---3---3-----6---6---6---6---6---6------------------------------ 
------------------------------------------------------------------------------ 
------------------------------------------------------------------------------ 
------------------------------------------------------------------------------ 
------------------------------------------------------------------------------ 
------------------------------------------------------------------------------ 
 
---5---5---5---6---6--5---5---8---10---10--8---8---6---6---------------------- 
-3---3---3---3---3------3---6---6----6-------6---6---6------------------------ 
------------------------------------------------------------------------------ 
------------------------------------------------------------------------------ 
------------------------------------------------------------------------------ 
------------------------------------------------------------------------------ 
Conversion, software version seven point oh 
Looking at life through the eyes of a tired hub 
Eating seeds as a pastime activity 
The toxicity of our city, of our city 
 
****************************************************************************** 
Parte III 
 
Refrão 
 
Tempo (1:13-1:37)  Now  what do you own the world...  Disorder...Disorder  
|----|--------------------------------------------------|----------|-----|    
|----|--------------------------------------------------|----------|-----| 
|----|--------------------------------------------------|----------|-----| 
|----|--------------------------------------------------|-8--------|-7---| 
|-0--|---------0----------------------------------------|-8--------|-7---| 
|-0--|-3-2-0-2-0----------------------------------------|-8--------|-7---| 
 
Now  somewhere between the sacred....    Sacred  silence and sleep    
|----|----------------------------------|----------|-----|    
|----|----------------------------------|----------|-----| 
|----|----------------------------------|----------|-----| 
|----|----------------------------------|-8--------|-7---| 
|-0--|---------0------------------------|-8--------|-7---| 
|-0--|-3-2-0-2-0------------------------|-8--------|-7---| 
 
Somewhere ...                   Between the   sacred silence and sleep 
|------------------------------|----------------------|--------------------| 
|------------------------------|----------------------|--------------------| 
|------------------------------|----------------------|--------------------| 
|------------------------------|--8-------------------|--7-----------------| 
|------------------------------|--8-------------------|--7-----------------| 
|-3-2-0--2-0-0--3-2-0--2-0-0---|--8-------------------|--7-----------------| 
 
                Disorder                Disorder 
|---------------------|----------------------|----------|------------------| 
|---------------------|----------------------|----------|------------------| 
|---------------------|----------------------|----------|------------------| 
|---------------------|----------------------|--8-------|-7----------------| 
|-0-------------------|----------------------|--8-------|-7----------------| 
|-0-------------------|--3-2-0-2-0-----------|--8-------|-7----------------| 
 
 
Now, what do you own the world?  
How do you own disorder, disorder 
Now somewhere between the sacred silence 
Sacred silence and sleep 
Somewhere, between the sacred silence and sleep 
Disorder, disorder, disorder 
 
****************************************************************************** 
Parte IV 
 
Tempo (1:37-2:15) 
 
---5---5---5---5---5---5-----8---8---8---8---8---8---------------------------- 
-3---3---3---3---3---3-----6---6---6---6---6---6------------------------------ 
------------------------------------------------------------------------------ 
------------------------------------------------------------------------------ 
------------------------------------------------------------------------------ 
------------------------------------------------------------------------------ 
------------------------------------------------------------------------------ 
 
---5---5---5---6---6--5---5---8---10---10--8---8---6---6---------------------- 
-3---3---3---3---3------3---6---6----6-------6---6---6------------------------ 
------------------------------------------------------------------------------ 
------------------------------------------------------------------------------ 
------------------------------------------------------------------------------ 
------------------------------------------------------------------------------ 
 
More wood for the fires, loud neighbours 
Flishlight riveries caught in the headlights of a truck 
 
Eating seeds as a pastime activity 
The toxicity of our city, of our city 
 
****************************************************************************** 
Parte V 
 
Refrão 
 
Tempo (2:15-2:40)  Now  what do you own the world...  Disorder...Disorder  
|----|--------------------------------------------------|----------|-----|    
|----|--------------------------------------------------|----------|-----| 
|----|--------------------------------------------------|----------|-----| 
|----|--------------------------------------------------|-8--------|-7---| 
|-0--|---------0----------------------------------------|-8--------|-7---| 
|-0--|-3-2-0-2-0----------------------------------------|-8--------|-7---| 
 
Now  somewhere between the sacred....    Sacred  silence and sleep    
|----|----------------------------------|----------|-----|    
|----|----------------------------------|----------|-----| 
|----|----------------------------------|----------|-----| 
|----|----------------------------------|-8--------|-7---| 
|-0--|---------0------------------------|-8--------|-7---| 
|-0--|-3-2-0-2-0------------------------|-8--------|-7---| 
 
Somewhere ...                   Between the   sacred silence and sleep 
|------------------------------|----------------------|--------------------| 
|------------------------------|----------------------|--------------------| 
|------------------------------|----------------------|--------------------| 
|------------------------------|--8-------------------|--7-----------------| 
|------------------------------|--8-------------------|--7-----------------| 
|-3-2-0--2-0-0--3-2-0--2-0-0---|--8-------------------|--7-----------------| 
 
                Disorder                Disorder 
|---------------------|----------------------|----------|------------------| 
|---------------------|----------------------|----------|------------------| 
|---------------------|----------------------|----------|------------------| 
|---------------------|----------------------|--8-------|-7----------------| 
|-0-------------------|----------------------|--8-------|-7----------------| 
|-0-------------------|--3-2-0-2-0-----------|--8-------|-7----------------| 
 
 
Now, what do you own the world?  
How do you own disorder, disorder 
Now somewhere between the sacred silence 
Sacred silence and sleep 
Somewhere, between the sacred silence and sleep 
Disorder, disorder, disorder 
 
****************************************************************************** 
Parte VI 
 
Tocar muitoooo rápido esta parte!! 
 
|------------------------------| 
|------------------------------| 
|------------------------------|  4x 
|------------------------------| 
|------------------------------| 
|-12-12--12-12-12--15-12-12-14-| 
 
 
  (4x between 2:45-2:50)  (4x between 2:50-2:56)   (4x between 2:56-3:02 
|----------------------------|----------------------|------------------------------| 
|----------------------------|----------------------|------------------------------| 
|----------------------------|----------------------|------------------------------| 
|----------------------------|----------------------|------------------------------| 
|----------------------------|----------------------|------------------------------| 
|-3-2-0--0-0-0--3-2-0--0-0-0-|-0-0--0-0-0--3-2-0--2-|-3-2-0--0-0-0--3-2-0--0-0-0---| 
 
****************************************************************************** 
Parte VII 
 
Refrão 
 
Tempo (3:02-3:32)  Now  what do you own the world...  Disorder...Disorder  
|----|--------------------------------------------------|----------|-----|    
|----|--------------------------------------------------|----------|-----| 
|----|--------------------------------------------------|----------|-----| 
|----|--------------------------------------------------|-8--------|-7---| 
|-0--|---------0----------------------------------------|-8--------|-7---| 
|-0--|-3-2-0-2-0----------------------------------------|-8--------|-7---| 
 
Now  somewhere between the sacred....    Sacred  silence and sleep    
|----|----------------------------------|----------|-----|    
|----|----------------------------------|----------|-----| 
|----|----------------------------------|----------|-----| 
|----|----------------------------------|-8--------|-7---| 
|-0--|---------0------------------------|-8--------|-7---| 
|-0--|-3-2-0-2-0------------------------|-8--------|-7---| 
 
Somewhere ...                   Between the   sacred silence and sleep 
|------------------------------|----------------------|--------------------| 
|------------------------------|----------------------|--------------------| 
|------------------------------|----------------------|--------------------| 
|------------------------------|--8-------------------|--7-----------------| 
|------------------------------|--8-------------------|--7-----------------| 
|-3-2-0--2-0-0--3-2-0--2-0-0---|--8-------------------|--7-----------------| 
 
                Disorder                Disorder 
|---------------------|----------------------|----------|----------------------------| 
|---------------------|----------------------|----------|----------------------------| 
|---------------------|----------------------|----------|----------------------------| 
|---------------------|----------------------|--8-------|-7--------------------------| 
|-0-------------------|----------------------|--8-------|-7--------------------------| 
|-0-------------------|--3-2-0-2-0-----------|--8-------|-7--------------------------| 
 
 
Então você inicia outro a partir de 3:27 (o correto é durante a ultima palavra do refrão -"disorder") 
 
Disor..................................................................der 
|----------------------------| 
|----------------------------| 
|----------------------------| 
|----------------------------|4x 
|----------------------------| 
|-3-2-0--0-0-0--3-2-0--0-0-0-| 
 
 
Now, what do you own the world?  
How do you own disorder, disorder 
Now somewhere between the sacred silence 
Sacred silence and sleep 
Somewhere, between the sacred silence and sleep 
Disorder, disorder, disorder 
 
****************************************************************************** 
Parte VIII 
 
Tempo (3:32- ....    ) 
 
When i became the sun   i shone life into............ 
|-------------------|----------------------|-------------------|----------------------| 
|-------------------|----------------------|-------------------|----------------------| 
|-------------------|----------------------|-------------------|----------------------| 
|-------------------|----------------------|-------------------|----------------------| 
|-------------------|----------------------|-------------------|----------------------| 
|-0---0-0--3-2-0--2-|-0-0--0-0-0--3-2-0--2-|-0---0-0--3-2-0--2-|-0-0--0-0-0--3-2-0--2-| 
 
When I became the sun 
I shone life into the man?s hearts 
When I became the sun 
I shone life into the man?s hearts  
 
   ........ 
 
 
_______________________________________________________ 
Contribuição: Rafael Brianezi da Silva([email protected]) 

		  

auto scroll beats size up size down change color hide chords drawings
tab show chords e-chords YouTube Clip e-chords hide all tabs e-chords go to top tab

share