Evanescence

home > Evanescence

My Immortal Tab

Evanescence

Difficulty: ExpertExpert

by darkfall

tuner correct add songbook print version text version save to e-mail
chords

My Immortal

Year: 2003 - Album: Anywhere But Home

  		Evanescence - My Immortal 
 
Tabbed by Luís Andrade 
 
Intro and verses: 
    A                Amaj7/G#         A9               Amaj7/G# 
E|-|----------------|----------------|----------------|----------------|-| 
B|-|---------2------|---------2------|---------0------|---------2------|-| 
G|-|-----2-------2--|-----1----------|-----2-------2--|-----1----------|-| 
D|-|---2---2---2---2|---2---2--------|---2---2---2---2|---2---2--------|-| 
A|-|-0--------------|----------------|-0--------------|----------------|-| 
e|-|----------------|-4--------------|----------------|-4--------------|-| 
 
A                      Amaj7/G#      
i'm so tired of being here 
A9                      Amaj7/G# 
suppressed by all of my childish fears 
A 
and if you have to leave 
Amaj7/G# 
i wish that you would just leave 
A9 
because your presence still lingers here 
Amaj7/G#                   F#m   
and it won't leave me alone  
 
C#m                         F#m 
these wounds won't seem to heal 
C#m                    F#m 
this pain is just too real 
C#m                         E   
there's just too much that time cannot erase 
 
Chorus: 
       F#m        D        E     C#m                     
when you cried i'd wipe away all of your tears 
F#m          D          E        C#m          
when you'd scream i'd fight away all of your fears 
F#m       D         E           C#m 
and i've held your hand through all of these years 
F#m      D     E  *           A Amaj7/G# A9 Amaj7/G#    
but you still have all of me 
 
* 
E|-|--------------------|--| 
B|-|--------------------|--| 
G|-|-2-1----------------|--|     
D|-|-----4-2------------|--| 
A|-|---------2----------|--| 
e|-|--------------------|--| 
      
Verse2: 
 
A 
you used to captivate me 
Amaj7/G# 
by your resonating light 
A9                       Amaj7/G# 
but now i'm bound by the life you left behind 
A                  Amaj7/G#    
your face it haunts my once pleasant dreams 
A9                      Amaj7/G#             F#m   
your voice it chased away all the sanity in me 
 
C#m                         F#m 
these wounds won't seem to heal 
C#m                    F#m 
this pain is just too real 
C#m                         E 
there's just too much that time cannot erase 
 
Repeat Chorus 
 
 D             F#m          C#m              D 
i've tried so hard to tell myself that you're gone 
      Bm                C#m 
and though you're still with me 
 D          E              F#m D E C#m F#m D E C#m    
i've been alone all along 
 
Chorus 
 
    A                Amaj7/G#         A9               Amaj7/G# 
E|-|----------------|----------------|----------------|----------------|-| 
B|-|---------2------|---------2------|---------0------|---------2------|-| 
G|-|-----2-------2--|-----1----------|-----2-------2--|-----1----------|-| 
D|-|---2---2---2---2|---2---2--------|---2---2---2---2|---2---2--------|-| 
A|-|-0--------------|----------------|-0--------------|----------------|-| 
e|-|----------------|-4--------------|----------------|-4--------------|-| 
    A                Amaj7/G#          
E|-|-----------------|---------------|-----------------|----------------------|-| 
B|-|---------14------|---------14----|---------12------|---------14--12-------|-| 
G|-|-----14------14--|-----13--------|-----14------14--|-----13---------------|-| 
D|-|---14--14--14--14|---14--14------|---14--14--14--14|---14--14--14--14----7|-| 
A|-|-12--------------|---------------|-12--------------|--------------------7-|-| 
e|-|-----------------|-16------------|-----------------|-16----------------5--|-| 
 
Esta versão não é perfeita. Apenas para quem quer tocar a música na afinação standard. 
A outra versão existe na Internet, mas é preciso baixar a 2ª corda pra Sib e a 6ª pra Ré. 
Se tiver dificuldades em tocar o G# (Amaj7/G#) na 6ª corda, pode tocar na 3ª corda, 
1º trasto (3ª corda, 13º trasto para a parte final) 
 
 
----------------------------------------------------------------------------------
Any comments, suggestions and requests are welcome: [email protected] 
 
 
Touch my tears with ur lips, touch my world with ur fingertips and we can  
have forever... Forever is our today, but who waits forever anyway? 
---------------------------------------------------------------------------------------
	  

Full key step upFull key step up
Half key step upHalf key step up
Half key step downHalf key step down
Full key step downFull key step down
Search Paypal
auto scroll beats size up size down change color hide chords drawings
tab show chords e-chords YouTube Clip e-chords hide all tabs e-chords go to top tab