System Of A Down

home > System Of A Down

Atwa Tab

System Of A Down

Difficulty: BeginnerBeginner

tuner correct add songbook print version text version save to e-mail
chordsukulelecavacokeyboardtabbassdrummharmonicsflute Guitar Pro
chords

Atwa

Year: 2001 - Album: Toxicity

(Malakian / Tankian)

  		

 d|--------------------------------------------------------------| 
 A|--------------------------------------------------------------| 
 F|---3---2---5---7----9---7---5---3-----------------------------| 
 C|--------------------------------------------------------------| 
 G|--------------------------------------------------------------| 
 C|-5---3---7---8---10---8---7---5-------------------------------| 




 d|--------------------------------------------------------------| 
 A|--------------------------------------------------------------| 
 F|--------------------------------------------------------------| 
 C|--------------------------------------------------------------| 
 G|-5-5-5-5-7-5-5-5-5-7-5-5-5-5-7-5-5-5-5-7----------------------| 
 C|-5-5-5-5-6-5-5-5-5-6-5-5-5-5-6-5-5-5-5-6----------------------| 




 d|--------------------------------------------------------------| 
 A|-10--8---12--13--15--13--12--10-------------------------------| 
 F|-12--10--14--15--17--15--14--12-------------------------------| 
 C|-10--8---12--13--15--13--12--10-------------------------------| 
 G|-10--8---12--13--15--13--12--10-------------------------------| 
 C|--------------------------------------------------------------| 




 d|--------------------------------------------------------------| 
 A|--------------------------------------------------------------| 
 F|-12--10--14--15--17--15--14--12-------------------------------| 
 C|--------------------------------------------------------------| 
 G|--------------------------------------------------------------| 
 C|--------------------------------------------------------------| 




 d|--------------------------------------------------------------| 
 A|--------------------------------------------------------------| 
 F|--------------------------------------------------------------| 
 C|--------------------------------------------------------------| 
 G|-5--3--7--8--10--8--7--5--------------------------------------| 
 C|-5--3--7--8--10--8--7--5--------------------------------------| 




 d|--------------------------------------------------------------| 
 A|--------------------------------------------------------------| 
 F|--------------------------------------------------------------| 
 C|--------------------------------------------------------------| 
 G|--------------------------------------------------------------| 
 C|-5--5--3--3--7--7--8--8--10--10--8--8--7--7--5----------------| 




Letra: 

Hey you, see me, pictures crazy, 
All the world I've seen before me passing by, 
I've got, nothing, to gain, to lose, 
All the world I've seen before me passing by, 

You don't care about how I feel, 
I don't feel it anymore, 
You don't care about how I feel, 
I don't feel it anymore 
You don't care about how I feel, 
I don't feel it anymore, 
You don't care about how I feel, 
I don't feel it anymore. 

Hey you, are me, not so pretty, 
All the world I've seen before me passing by, 
Silent my voice, I've got no choice 
All the world I've seen before me passing by, 

You don't care about how I feel, 
I don't feel it anymore, 
You don't care about how I feel, 
I don't feel it anymore 
You don't care about how I feel, 
I don't feel it anymore, 
You don't care about how I feel, 
I don't feel it anymore 
I don't see, anymore, 
I don't hear, anymore, 
I don't speak anymore, 
I don't feel. 

Hey you, see me, pictures crazy, 
All the world I've seen before me passing by, 
I've got, nothing, to gain, to lose, 
All the world I've seen before me passing by, 

You don't care about how I feel, 
I don't feel it anymore, 
You don't care about how I feel, 
I don't feel it anymore 
You don't care about how I feel, 
I don't feel it anymore, 
You don't care about how I feel, 
I don't feel it anymore 
I don't sleep, anymore, 
I don't eat, anymore, 
I don't live anymore, 
I don't feel. 

	  

Search Paypal
auto scroll beats size up size down change color hide chords drawings
tab show chords e-chords YouTube Clip e-chords hide all tabs e-chords go to top tab