Linkin Park

Somewhere I Belong Tab

Linkin Park

Difficulty: IntermediateIntermediate

tuner correct add songbook print version text version save to e-mail
chordsukuleleukulelecavacokeyboardtabbassdrummharmonicsflute Guitar Pro
close

there isn't a video lesson for this song

request
chords

Somewhere I Belong

Year: 2003 - Album: Meteora

  		Intro/Verso:					Segunda Guitarra:(Mike)
  		
Eb||---------------------------|	 ||-----------------------|
Bb||-----------------10--------|         ||-----------------------|
Gb||-----11----(11)------11----|    	 ||--4-4--7-7-------------|
Db||--9------9-----------------|         ||--4-4--7-7-7-7--5-5----|
Ab||---------------------------|	 ||--2-2--5-5-7-7--5-5----|
Db||---------------------------|	 ||-----------5-5--3-3----|	

Refrao:	

(Brad)
   
>|--------------------------------------------------
>|--------------------------------------------------
>|7-7-/8-8-/10-/10-/8-8-/7-7-/8-8-/5-5-/3-3---------
>|--------------------------------------------------
>|5-5-/6-6-/8--/8--/6-6-/5-5-/6-6-/3-3-/1-1---------
>|--------------------------------------------------


	Segunda Guitarra:(Mike)
  		
||-----------------------|
||-----------------------|      
||--4-4--7-7-------------|
||--4-4--7-7-7-7--5-5----|
||--2-2--5-5-7-7--5-5----|	
||-----------5-5--3-3----|	


  	Interlúdio      
||-------------------------------------------------------|>
||-------------------------------------------------------|>
||------11-11--------11-11---------11-11---------8/97---|>
||-------x-x----------x-x-----------x-x----------x-x-x---|>
||--9-9--9-9-12-12----9-9----7-7----9-9---5-5--- 6/75---|>
||--9-9------12-12-----------7-7----------5-5--- --------|>

    
>|-------------------------------------------------|
>|-------------------------------------------------|
>|--11-11--------14-14--------11-11--------8/97---|
>|---x-x----------x-x----------x-x---------x-x-x---|
>|---9-9---x-x---12-12---x-x---9-9---x-x---6/75---|
>|---------x-x-----------x-x---------x-x-----------|

Outro:
   
||-------------------------------------|
||-------------------------------------|                
||-------------------------------------|
||--9-9-9-9-9-9-9-9-9-9--*5-*5-*5-*5---|
||--9-9-9-9-9-9-9-9-9-9--*5-*5-*5-*5---| (Repete 3x e na quarta acaba no A#)
||--9-9-9-9-9-9-9-9-9-9--*5-*5-*5-*5---|

LYRICS

When this began
I had nothing to say
And I'd get lost in the nothingness inside of me
I was confused
And I let it all out to find
That I'm not the only person with these things in mind
Inside of me
But all the vacancy the words revealed
Is the only real thing that I've got left to feel
Nothing to lose
Just stuck 
Hollow and alone
And the fault is my own
And the fault is my own

Refrão:
I want to heal
I want to feel
What I thought was never real
I wanna let go on the pain I've felt so long
(Erase all the pain till it's gone)
I want to heal
I want to feel
Like I'm close to something real
I wanna find sothing I've wanted all along
Somewhere I belong

And I've got nothing to say
I can't believe I didn't fall right down on my face
I was confused
Looking everywhere only to find
That is not the way I had imagined it all in my mind
So what am I
What do I have but negativity
'Cause I can't justify the way everyone is looking at me
Nothing to lose
Nothing to gain
Hollow and alone
And the fault is my own
And the fault is my own


I will never know 
Myself until I do this on my own
And I will never feel 
Anything else until my wounds are healed
I will never be 
Anything till a I break away from me
I will break away
I'll find myself today

______________________________________________________
Contribuição: Fernando Lima Oliveira([email protected])
	  

Search Paypal
auto scroll beats size up size down change color hide chords drawings
tab show chords e-chords YouTube Clip e-chords hide all tabs e-chords go to top tab

share with facebook