Stratovarius

4000 Rainy Nights

Stratovarius

tabs Beginner beginner

save to print version add songbook text version e-mail correct tuner
chordsukulelecavacokeyboardtabbassdrumsharmonicaflute Guitar Pro
close

there isn't a video lesson for this song

chords

4000 Rainy Nights

	  		                  INTRO 
 
                  e|--------------------------------------------------------------| 
                  B|-12b-------10--12-12b-------------------------12b---------10--| 
                  G|-----12--9-------------12--9--9h10--9--5--4--------12--9------|    
                  D|--------------------------------------------------------------| 
                  A|--------------------------------------------------------------| 
                  E|--------------------------------------------------------------| 
 
                  e|--------------------------------------------------------------------------| 
                  B|-12-12b---------------------12--12b--------10---10--8---------------------| 
                  G|--------12--9--9h10--9--7-----------12--9---------------10--9--7----------| 
                  D|-----------------------------------------------------------------10--9--7-| 
                  A|--------------------------------------------------------------------------| 
                  E|--------------------------------------------------------------------------| 
                   VERSO 1 
                  e|--------------------------------------3--------------------3---3---------| 
                  B|-------0-------0-------0-------0---------------0-------0---3---3-3-------| 
                  G|-----5-------5-------5-------5----5----------5-------5-----0---0---------| 
                  D|---2-------3-------2-------3---------------2-------3---------------------| 
                  A|-0-------0-------0-------0---------------0-------0-----------------------| 
                  E|-----------------------------------------------------------3---3---------| 
 
                  e|-------------------------------------3--------------------3----3---| 
                  B|-------0-------0-------0-------0--------------0-------0---3----3---| 
                  G|-----5-------5-------5-------5----5---------5-------5-----0----0---| 
                  D|---2-------3-------2-------3--------------2-------3------------0---| 
                  A|-0-------0-------0-------0--------------0-------0--------------0---| 
                  E|----------------------------------------------------------3----3---| 
                    REFRÃO 
                  e|------------------------------------------------------------------| 
                  B|------------------------------------------------------------------| 
                  G|------------2------------------5-5-------------------2--4---------| 
                  D|-------5-2--2-------------5-2--5-5--0-5---------5-2--2--4-5-7-5---| 
                  A|-2-3-2------0---0-0-2-3-2------3-3--0-5---2-3-2------0--2-5-7-5---| 
                  E|------------------------------------0-3-------------------3-5-3---| 
 
                    SOLO 1   APOS O REFRÃO 
                                     
                  e|--------------------------------------------------------| 
                  B|----------------------------10--12-12b-13-12--8--10-----| 
                  G|--7b--9--7--5--9--7--12--9------------------------------| 
                  D|--------------------------------------------------------| 
                  A|--------------------------------------------------------| 
                  E|--------------------------------------------------------| 
                    VERSO 2 
                  e|-----------------------------------3----------------3---3--| 
                  B|-------0-------0-------0-------0----------0------0--3---3--| 
                  G|-----5-------5-------5-------5---5------5------5----0---0--| 
                  D|---2-------3-------2-------3----------2------3----------0--| 
                  A|-0-------0-------0-------0----------0------0------------0--| 
                  E|----------------------------------------------------3---3--| 
                    REFRÃO  2 VEZES 
                   
                  e|--------------------------------------------------------------| 
                  B|--------------------------------------------------------------| 
                  G|-----------2-----------------5-5-----------------2--4---------| 
                  D|-------5-2-2------------5-2--5-5-0-5---------5-2-2--4--5-7-5--| 
                  A|-2-3-2-----0--0-0-2-3-2------3-3-0-5--2-3-2------0--2--5-7-5--| 
                  E|---------------------------------0-3-------------------3-5-3--| 
                   SOLO 2   APOS SEGUNDO REFRÃO 
                  e|------------------------------------------------------------------| 
                  B|------------------------------------------------13b-13-12---------| 
                  G|-16*-14----14--7-7-7--9b-9-------10b-10--7-7-7------------12b-----| 
                  D|--------17-----------------7-7-7----------------------------------| 
                  A|--------------------------------------------------------------0-alavancada em| 
                  E|------------------------------------------------------------------6--tempos| 
 
                  e|--15-15----15-15-21-21-20-20-19-19-------------------20----19------19---| 
                  B|-----------------------------------19-19-21-21-----------------16-------| 
                  G|-----------------------------------------------19-19----15--------------| 
                  D|------------------------------------------------------------------------| 
                  A|------------------------------------------------------------------------| 
                  E|------------------------------------------------------------------------| 
                   final do solo 
                  e|------------19-|-----------------------------------19-21-22--| esse e um riff 
                  B|--------15-----|-----------19-21-22---22-19-21-22------------| que e feito apos 
                  G|-----16--------|---18-19-21----------------------------------| o solo na entrada 
                  D|--17-----------|21-------------------------------------------| do refrão obs.e  
                  A|---------------|---------------------------------------------| muito rapido ai  
                  E|---------------|---------------------------------------------| depois e o refrão 
                     refrão final com mudanças 2 vezes                             diferente 
                  e|---------------------------------------------------------------|- 
                  B|---------------------------------------------------------------| 
          2 vezes G|------------4-----------------7-7-----------------4-6----------| 
                  D|-------7-4--4------------7-4--7-7-0--7--------7-4-4-6--7--9--7-| 
                  A|-4-5-4------2--2-2-4-5-4------5-5-0--7--4-5-4-----2-4--7--9--7-| 
                  E|----------------------------------0--5-----------------5--7--5-| 
                    final 
                  e|-----------------------------------------------------| 
                  B|-----------------------------------------------------| 
                  G|------------4--7X-7X--5X-5X----------------4XXXX-----| 
                  D|--------7-4-4--7X-7X--5X-5X--7X-7X--5X-5X--4XXXX-----| 
                  A|--4-5-4-----2--5X-5X--3X-3X--7X-7X--5X-5X--2XXXX-----| 
                  E|-----------------------------5X-5X--3X-3X------------| 

		  

See also:

tabs Stratovarius - Holy Solos tabs Nightwish - The Carpenter tabs Nightwish - Ever dream tabs Nightwish - Whish I had an Angel tabs Stratovarius - Hunting High And Low tabs HIM - Right Here In My Arms
e-chords

Other versions:

tabs Stratovarius - 4000 Rainy Nights
auto scroll beats size up size down change color hide chords drawings
tab show chords e-chords YouTube Clip e-chords hide all tabs e-chords go to top tab

share