Stratovarius

Against The Wind

Stratovarius

tabs

save to print version add songbook text version e-mail correct tuner
chordsukulelecavacokeyboardtabbassdrumsharmonicaflute Guitar Pro
close

there isn't a video lesson for this song

chords

Against The Wind

	  		 
guitarra afinada a meio tom abaixo 
Intro 
4x 
|--p.m-----|------------p.m->----------------------p.m->----------------------------------------| 
|-----------------------------------------------------------------------------------------------| 
|-----------------------------------------------------------------------------------------------| 
|----------------9--7--9----------------/12--10--7----------------9--7--9--/12--10--9--7--9-/10-| 
|-7-7-7-7-7--------------7-7-7-7-7-----------------7-7-7-7-7------------------------------------| 
|-0-0-0-0-0--0-0---------0-0-0-0-0--0-0------------0-0-0-0-0--0-0-------------------------------| 
 
 
|--------------------------------------------------20-19-17--19-17-----17-----------------------| 
|--b-------½-------------½--------------½------------------20-----20-19--20-19-17-20-19-17-16-17| 
|-14~-----11-11--9--8~---8--8--6--8~---11-11--9--8~---------------------------------------------| 
|--4----------------4--------------4-------------4----------------------------------------------| 
|--2----------------2--------------2-------------2----------------------------------------------| 
|-----------------------------------------------------------------------------------------------| 
 
 
1st verse 
2x   p.m---->  
|-----------------------------------------------------------------------------------------------| 
|-----------------------------------------------------------------------------------------------| 
|-----------------------------------------------------------------------------------------------| 
|-----------------------------------------------------------------------------------------------| 
|-5^7--------5^7-----------------5^7---------5^7-----------------5^7---------5^7----------------| 
|----0-0-0-0-----0-0-0-0-0-0-0-0-----0-0-0-0-----0-0-0-0-0-0-0-0-----0-0-0-0-----0-0-0-0-0-0-0-0| 
 
              p.m-->  
|-----------------------------------------------------------------------------------------------| 
|-----------------------------------------------------------------------------------------------| 
|--2---------5---------------------------------------------------------------------------------*| 
|--2---------5--------------------(32)----------------------------------------------------5---5-| 
|--0---------3-3-3-3-3-3-3-3-3-3-3-3-3-3-3-3-3-3-3-3-3-3-5^7---------5^7------------------3---3*| 
|------------------------------------------------------------0-0-0-0----0-0-0-0-0-0-0-0-00--00--| 
 
 
|-----------------------------------------------------------------------------------------------| 
|-----------------------------------------------------------------------------------------------| 
|-----------------------------------------------------------------------------------------------| 
|-----4------5------4------5------7-------------------------------------------------------------| 
|-----2------3------2------3------5-------------------------------------------------------------| 
|-----------------------------------------------------------------------------------------------| 
 
chorus 
2x    p.m--> 
|-----------------------------------------------------------------------------------------------| 
|-----------------------------------------------------------------------------------------------| 
|-----------------------------------------------------------------------------------------------| 
|--------------------------------7--------------------------------------------------------------| 
|---5----------------------------5--5-5-5-5-5-5-5-5-5-5-5-5-7-----------------------------------| 
|---3--3-3-3-3-3-3-3-3-3-3-3-3-3----------------------------5--5-5-5-5-5-5-5-5-5-5-5-5----------| 
 
 
|-----------------------------------------------------------------------------------------------| 
|-----------------------------------------------------------------------------------------------| 
|----------------------------------------------------------------------------------------------*| 
|-9--------------------------------------------------------7--------------------------------1-2-| 
|-7--7-7-7-7-7-7-7-7-7-7-7-7-7--5--------------------------5--5-5-5-5-5-5-5-5-5-5-5--3----2---2*| 
|-------------------------------3--3-3-3-3-3-3-3-3-3-3-3-3------------------------------5-----0-| 
 
 
solo F# 
|----b------14-15-18^15^14^15^14----------15^14^12^14^12----------15^14^12^14^12----------------| 
|---17--17-----------------------17-15-14----------------15-14-12----------------15-14-12-------| 
|-----------------------------------------------------------------------------------------------| 
|-----------------------------------------------------------------------------------------------| 
|---4-------------------------------------------------------------------------------------------| 
|---2-------------------------------------------------------------------------------------------| 
 
 
|-----------------------------------------------------------------------------------------------| 
|----------15^14^12^14^12-----------------------------------------------------------------------| 
|-14-12-11----------------14-12-11----------14^12^11^12^11--------------------------------------| 
|----------------------------------14-12-11----------------14-12-11-14^12^11^12^11--------------| 
|----------------------------------------------------------------------------------14-13-13~----| 
|-----------------------------------------------------------------------------------------------| 
 
   D5 
|---b------10-11-14^11^10^11^10----------11^10^8^10^8---------11^10^8^10^8----------------------| 
|--13--13-----------------------13-11-10--------------11-10-8--------------11-10-8-10-8-7-------| 
|-----------------------------------------------------------------------------------------------| 
|--7--------------------------------------------------------------------------------------------| 
|--5--------------------------------------------------------------------------------------------| 
|-----------------------------------------------------------------------------------------------| 
 
                                          2x         b 
|----------------------------------------|-------7-8-8-8-7-------------b--------------b---------| 
|-------10-8-7---------------------------|---8~------------10--8-10---10--10-8--8-10-10-10-8-7~-| 
|-8-7-5--------8-7-5-------8-7-5---------|------------------------------------------------------| 
|--------------------8-7-5-------8-7-5-4~|------------------7-----8----------9---------------4--| 
|----------------------------------------|---5--------------5-----6----------7---------------2--| 
|----------------------------------------|---3--------------------------------------------------| 
 
 
|-----------------------------------------------------------------------------------------------| 
|--------------7-8--7----------------------------------5--7--8----------------------------------| 
|-7---7--9~--9---------9--7--5--4--5--4-------4-5-7--7------------------------------------------| 
|---9---(5)-------------------------------7--7----(7)-------------------------------------------| 
|-------(3)----------------5-------------(7)------(5)-------------------------------------------| 
|-------------------------3------------- (5)----------------------------------------------------| 
Chorus x 3 
 
_______________________________________________________ 
Contribuição: Fabio Jr.Nazatto([email protected]) 

		  

Full key step upFull key step up
Half key step upHalf key step up
Half key step downHalf key step down
Full key step downFull key step down
hide glossary

See also:

tabs Nightwish - Bless the child tabs HIM - Right Here In My Arms tabs Nightwish - Crimson Tide / Deep Blue Sea tabs Stratovarius - Infinity tabs HIM - It's All Tears (Unplugged) tabs Stratovarius - Distant Skies
e-chords

Other versions:

tabs Stratovarius - Against The Wind
auto scroll beats size up size down change color hide chords drawings
tab show chords e-chords YouTube Clip e-chords hide all tabs e-chords go to top tab

share