HIM

home > HIM

Rip out the wings of butterfly Tab

HIM

Difficulty: ExpertExpert

by europeu

tuner correct add songbook print version text version save to e-mail
chordsukulelecavacokeyboardtabbassdrumsharmonicsflute Guitar Pro
chords

Rip out the wings of butterfly

  		Tuning Drop C 
 |Intro 
 |Guitar 1 
D|---------------------------------------------------------------------------| 
A|-8---8----8--6h8p6\4--6----6--6--6--6--6--6---4h6p4----4-------------------| 
F|---5---5-----------------3--3--3--3--3--3-----------7--------8---8----7----| 
C|-------------------------------------------------------------------8-----8-| 
G|-----------------------------------------------------------8---8-----------| 
C|---------------------------------------------------------------------------| 
 |Guitar 2 
D|---------------------------------------------------------------------------| 
A|---------------------------------------------------------------------------| 
F|---------------------------------------------------------------------------| 
C|---------------------------------------------------------------------------| 
G|----------------------------------------------------------------------8--8-| 
C|----------------------------------------------------------------------8--8-| 
  
 |Guitar 1 
D|---------------------------------------------------------------------------| 
A|-8---8----8--6h8p6\4--6----6--6--6--6--6--6---4h6p4----4-------------------| 
F|---5---5-----------------3--3--3--3--3--3-----------7--------8---8----7----| 
C|-------------------------------------------------------------------8-----8-| 
G|-----------------------------------------------------------8---8-----------| 
C|---------------------------------------------------------------------------| 
|Guitar 2 
D|---------------------------------------------------------------------------| 
A|---------------------------------------------------------------------------| 
F|---------------------------------------------------------------------------| 
C|-10~~----------------------------------------------------------------------| 
G|-10~~-----------------------------------------------------------------8--8-| 
C|-10~~-----------------------------------------------------------------8--8-| 
  
 |Guitar 1 
D|---------------------------------------------------------------------------| 
A|-8---8----8--6h8p6\4--6----6--6--6--6--6--6---4h6p4----4-------------------| 
F|---5---5-----------------3--3--3--3--3--3-----------7--------8---8----7----| 
C|-------------------------------------------------------------------8-----8-| 
G|-----------------------------------------------------------8---8-----------| 
C|---------------------------------------------------------------------------| 
 |Guitar 2 
D|---------------------------------------------------------------------------| 
A|---------------------------------------------------------------------------| 
F|-5-5-5-5-5-----5---3-3-3-3-3-3-3-3-3-3-3-3-3--------------------3--3--3--3-| 
C|-5-5-5-5-5--3--5---3-3-3-3-3-3-3-3-3-3-3-3-3---6---5--3--3-3-3--3--3--3--3-| 
G|-3-3-3-3-3--3--3---1-1-1-1-1-1-1-1-1-1-1-1-1---6---5--3--3-3-3--1--1--1--1-| 
C|------------3----------------------------------6---5--3--3-3-3-------------| 
 
 |Guitar 1 
D|------------------------------------------------------------| 
A|-8---8----8--6h8p6\4--6----6--6--6--6--6--6---4h6p4----4~~--| 
F|---5---5-----------------3--3--3--3--3--3-----------7-------| 
C|------------------------------------------------------------| 
G|------------------------------------------------------------| 
C|------------------------------------------------------------| 
 |Guitar 2 
D|------------------------------------------------------------| 
A|------------------------------------------------------------| 
F|-5-5-5-5-5-----5---3-3-3-3-3-3-3-3-3-3-3-3-3----------------| 
C|-5-5-5-5-5--3--5---3-3-3-3-3-3-3-3-3-3-3-3-3---6---5---3~~--| 
G|-3-3-3-3-3--3--3---1-1-1-1-1-1-1-1-1-1-1-1-1---6---5---3~~--| 
C|------------3----------------------------------6---5---3~~--| 
 
 |Verse 
 |Guitar 2 only 
D|------------------------------------------------------------------| 
A|------------------------------------------------------------------| 
F|------------------------------------------------------------------| 
C|------------------------------------------------------------------| 
G|-8-10--10-------10-8--8-------8--10--8--10--12--10--8----8-10--10-| 
C|-8-10--10-------10-8--8-------8--10--8--10--12--10--8----8-10--10-| 
PM ********       *******       ***********************    ******** 
 
D|------------------------------------------------------------------------| 
A|------------------------------------------------------------------------| 
F|--------------------------------------------------------------------3-3-| 
C|--------------------------------------------------------------------3-3-| 
G|-8--8-----8--8-----10-8--8----8--10--8--10--12--10--8---3~~~~~------1-1-| 
C|-8--8-----8--8-----10-8--8----8--10--8--10--12--10--8---3~~~~~----------| 
PM ****     ****     *******    *********************** 
 
 |Chorus 
 |Guitar 2 only 
D|---------------------------------------------------------------------------| 
A|---------------------------------------------------------------------------| 
F|-5-5-5-5-5-----5---3-3-3-3-3-3-3-3-3-3-3-3-3--------------------3--3--3--3-| 
C|-5-5-5-5-5--3--5---3-3-3-3-3-3-3-3-3-3-3-3-3---6---5--3--3-3-3--3--3--3--3-| x2 
G|-3-3-3-3-3--3--3---1-1-1-1-1-1-1-1-1-1-1-1-1---6---5--3--3-3-3--1--1--1--1-| 
C|------------3----------------------------------6---5--3--3-3-3-------------| 
 
 |Post Chorus 
 |Guitar 1 
D|------------------------------------------------------------| 
A|-8---8----8--6h8p6\4--6----6--6--6--6--6--6---4h6p4----4~~--| 
F|---5---5-----------------3--3--3--3--3--3-----------7-------| 
C|------------------------------------------------------------| 
G|------------------------------------------------------------| 
C|------------------------------------------------------------| 
 |Guitar 2 
D|------------------------------------------------------------| 
A|------------------------------------------------------------| 
F|-5-5-5-5-5-----5---3-3-3-3-3-3-3-3-3-3-3-3-3----------------| 
C|-5-5-5-5-5--3--5---3-3-3-3-3-3-3-3-3-3-3-3-3---6---5---3~~--| 
G|-3-3-3-3-3--3--3---1-1-1-1-1-1-1-1-1-1-1-1-1---6---5---3~~--| 
C|------------3----------------------------------6---5---3~~--| 
 
 |Verse 2 
 |Guitar 2 only 
D|------------------------------------------------------------------------| 
A|------------------------------------------------------------------------| 
F|------------------------------------------------------------------------| 
C|------------------------------------------------------------------------| 
G|-8-10--10----8--8-----10-8--8-------8--10--8--10--12--10--8----8-10--10-| 
C|-8-10--10----8--8-----10-8--8-------8--10--8--10--12--10--8----8-10--10-| 
PM ********    ****     *******       ***********************    ******** 
 
D|------------------------------------------------------------------------| 
A|------------------------------------------------------------------------| 
F|--------------------------------------------------------------------3-3-| 
C|--------------------------------------------------------------------3-3-| 
G|-8--8-----8--8-----10-8--8----8--10--8--10--12--10--8---3~~~~~------1-1-| 
C|-8--8-----8--8-----10-8--8----8--10--8--10--12--10--8---3~~~~~----------| 
PM ****     ****     *******    *********************** 
 
 
|Bridge 
|Guitar 1 
D|---------------------------------------------------------------------------| 
A|-8---8----8--6h8p6\4--6----6--6--6--6--6--6---4h6p4----4-------------------| 
F|---5---5-----------------3--3--3--3--3--3-----------7--------8---8----7----| 
C|-------------------------------------------------------------------8-----8-|\ 
G|-----------------------------------------------------------8---8-----------| \ 
C|---------------------------------------------------------------------------|  \ 
 |Guitar 2 							     x2		 
D|---------------------------------------------------------------------------|  / 
A|---------------------------------------------------------------------------| /   
F|-5-5-5-5-5-----5---3-3-3-3-3-3-3-3-3-3-3-3-3--------------------3--3--3--3-|/ 
C|-5-5-5-5-5--3--5---3-3-3-3-3-3-3-3-3-3-3-3-3---6---5--3--3-3-3--3--3--3--3-| 
G|-3-3-3-3-3--3--3---1-1-1-1-1-1-1-1-1-1-1-1-1---6---5--3--3-3-3--1--1--1--1-| 
C|------------3----------------------------------6---5--3--3-3-3-------------| 
 
 |Bridge part 2 
 |Guitar 2 only 
D|-----|-------------------------------|-------------------------------| 
A|-----|-------------------------------|-------------------------------| 
F|-5~~-|-------------------------------|-------------------------------| 
C|-5~~-|-------------------------------|-------------------------------| 
G|-3~~-|-------------------------------|-------------------------------| 
C|-----|--5--/--8---7--5--3---5-/-8--3-|--5--/--8---7--5--3---5-/-8--2-| 
 
D|-------------------------------------|----------------------------------------| 
A|-------------------------------------|----------------------------------------| 
F|-------------------------------------|-------------------------------------9~-| 
C|-5---8--7---5--3---3-0-3---5---8--3--|-5---8--7---5--3---3--0--3----5---8--z--| 
G|-5---8--7---5--3---3-0-3---5---8--3--|-5---8--7---5--3---3--0--3----5---8--7~-| 
C|-5---8--7---5--3---3-0-3---5---8--3--|-5---8--7---5--3---3--0--3----5---8-----| 
 
D|-------------------------------------| 
A|-------------------------------------| 
F|--8~~------11~~------12~~-------3--3-| 
C|--x~~-------x~~-------x~~-------3--3-| 
G|--6~~-------9~~------10~~-------1--1-| 
C|-------------------------------------| 
 
 |Outro 
 |Guitar 1 
D|---------------------------------------------------------------------------| 
A|-8---8----8--6h8p6\4--6----6--6--6--6--6--6---4h6p4----4-------------------| 
F|---5---5-----------------3--3--3--3--3--3-----------7--------8---8----7----| 
C|-------------------------------------------------------------------8-----8-|\ 
G|-----------------------------------------------------------8---8-----------| \ 
C|---------------------------------------------------------------------------|  \ 
 |Guitar 2 							     x5	 
D|---------------------------------------------------------------------------|  / 
A|---------------------------------------------------------------------------| /   
F|-5-5-5-5-5-----5---3-3-3-3-3-3-3-3-3-3-3-3-3--------------------3--3--3--3-|/ 
C|-5-5-5-5-5--3--5---3-3-3-3-3-3-3-3-3-3-3-3-3---6---5--3--3-3-3--3--3--3--3-| 
G|-3-3-3-3-3--3--3---1-1-1-1-1-1-1-1-1-1-1-1-1---6---5--3--3-3-3--1--1--1--1-| 
C|------------3----------------------------------6---5--3--3-3-3-------------| 
 
 |End 
 |Guitar 1 
D|----------------------------------------------------------| 
A|-8---8----8--6h8p6\4--6----6--6--6--6--6--6---4h6p4----4--| 
F|---5---5-----------------3--3--3--3--3--3-----------7-----| 
C|----------------------------------------------------------| 
G|----------------------------------------------------------| 
C|----------------------------------------------------------| 
 |Guitar 2 
D|----------------------------------------------------------| 
A|----------------------------------------------------------| 
F|-5-5-5-5-5-----5---3-3-3-3-3-3-3-3-3-3-3-3-3--------------| 
C|-5-5-5-5-5--3--5---3-3-3-3-3-3-3-3-3-3-3-3-3---6---5-\-3--| 
G|-3-3-3-3-3--3--3---1-1-1-1-1-1-1-1-1-1-1-1-1---6---5-\-3--| 
C|------------3----------------------------------6---5-\-3--| 
 
Order 
 
Intro 
Verse 
Chorus 
Post Chorus 
Verse 2 
Chorus 
Bridge 
Bridge part 2 
Outro 
End 

	  

Full key step upFull key step up
Half key step upHalf key step up
Half key step downHalf key step down
Full key step downFull key step down
Search Paypal
auto scroll beats size up size down change color hide chords drawings
tab show chords e-chords YouTube Clip e-chords hide all tabs e-chords go to top tab