Steel Panther

Stripper Girl

Steel Panther

tabs

by  TAMAMOREIRA

save to print version add songbook text version e-mail correct tuner
chordsukulelecavacokeyboardtabbassdrumsharmonicaflute Guitar Pro
close

there isn't a video lesson for this song

chords

Stripper Girl

	  		 

Intro ("I met you down at the Seventh Veil...") 

gtr 1 (acoustic) 

d#|-3----3----3----3--2-------------------| 
A#|-3----3----3----3--3-------------------| 
F#|-0----0----0----0--2-------------------| 
C#|-0----2----0----2--0-------------------| 
G#|-2----3----2----3----------------------| 
D#|-3---------3---------------------------| 

gtr 2 
                            T 
d#|---------------------------------------| 
A#|---------------------------------------| 
F#|----------------------9b-13--9brp7---7-| 
C#|-----------------------------------9---| 
G#|---------------------------------------| 
D#|---------------------------------------| 

====== 

verse 1 ("I asked you for a table dance...") 

gtr 1 (acoustic) 
            ^   ^      ^          ^   ^      ^          ^   ^                      ^   ^   ^ 
d#|-3--3--3-3-3-3-3--3-3--2--2--2-2-2-2-2--2-2--0--0--0-0-0-0-0--0----0--2----2--2-2-2-2-2-2-2-| 
A#|-3--3--3-3-3-3-3--3-3--3--3--3-3-3-3-3--3-3--1--1--1-1-1-1-1--1----1--3----3--3-3-3-3-3-3-3-| 
F#|-0--0--0-0-0-0-0--0-0--4--4--4-4-4-4-4--4-4--2--2--2-2-2-2-2--2----2--2----2--2-2-2-2-2-2-2-| 
C#|-0--0--0-0-0-0-0--0-0--4--4--4-4-4-4-4--4-4--2--2--2-2-2-2-2--2----2--0----0--0-0-0-0-0-0-0-| 
G#|-2--2--2-2-2-2-2--2-2--2--2--2-2-2-2-2--2-2--0--0--0-0-0-0-0--0----0------------------------| 
D#|-3--3--3-3-3-3-3--3-3-----------------------------------------------------------------------| 

gtr 2 

d#|----------------------------------------------------------------------------------------------| 
A#|----------------------------------------------------------------------------------------8--10-| 
F#|----------------------------------------------------------------------------------7--9--------| 
C#|---------------------------------------------------------------------------5--7b--------------| 
G#|---------------------------------------------------------------------5--7---------------------| 
D#|----------------------------------------------------------------------------------------------| 

====== 

Chorus 1 ("Stripper girl, heaven sent...") 

gtr 1 

d#|-------3----3------------2-----------| 
A#|-1--1--3----3------------3----1----1-| 
F#|-0--0--0----0------------2----0----0-| 
C#|-2--2--0----0--2--2*--2--0----2----2-| 
G#|-3--3--2----2--2--2*--2-------3----3-| 
D#|-------3----3--0--0*--0--------------| 

gtr 2 

d#|-------------------------------------| 
A#|-------------------------------------| 
F#|-------------------------------------| 
C#|-------------------------------------| 
G#|-------------------------------------| 
D#|-------------------------------------| 

= 

gtr 1 

d#|-------3----3------------2--2--------------------------------------| 
A#|-1--1--3----3------------3--3--1--1--------1-----------------------| 
F#|-0--0--0----0------------2--2--0--0--------0-----------------------| 
C#|-2--2--0----0--2--2*--2--0--0--2--2--------2-----------------------| 
G#|-3--3--2----2--2--2*--2--------3--3--------3-----------------------| 
D#|-------3----3--0--0*--0--------------------------------------------| 

gtr 2 

d#|-------------------------------------------------------------------| 
A#|-------------------------------------15br~-13--10brp8--------------| 
F#|-------------------------------------------------------9---------\-| 
C#|-------------------------------------------------------------------| 
G#|-------------------------------------------------------------------| 
D#|-------------------------------------------------------------------| 

====== 

verse 2 ("I wanna love you til the end of time...") 

gtr 1 (acoustic) 
            ^   ^      ^ 
d#|-3--3--3-3-3-3-3--3-3--2--2--2-2-2-2-2--2-2--0--0--0-0-0-0-0--0----0--2----2-| 
A#|-3--3--3-3-3-3-3--3-3--3--3--3-3-3-3-3--3-3--1--1--1-1-1-1-1--1----1--3----3-| 
F#|-0--0--0-0-0-0-0--0-0--4--4--4-4-4-4-4--4-4--2--2--2-2-2-2-2--2----2--2----2-| 
C#|-0--0--0-0-0-0-0--0-0--4--4--4-4-4-4-4--4-4--2--2--2-2-2-2-2--2----2--0----0-| 
G#|-2--2--2-2-2-2-2--2-2--2--2--2-2-2-2-2--2-2--0--0--0-0-0-0-0--0----0---------| 
D#|-3--3--3-3-3-3-3--3-3--------------------------------------------------------| 

gtr 2 

d#|----------------------------------------------------------------------------| 
A#|----------------------------------------------------------------------------| 
F#|----------------------------------------------------------------------------| 
C#|----------------------------------------------------------------------------| 
G#|----------------------------------------------------------------------------| 
D#|----------------------------------------------------------------------------| 

= 

gtr 1 (acoustic) 
            ^   ^      ^          ^   ^      ^          ^   ^                      ^   ^   ^ 
d#|-3--3--3-3-3-3-3--3-3--2--2--2-2-2-2-2--2-2--0--0--0-0-0-0-0--0----0--2----2--2-2-2-2-2-2-2------| 
A#|-3--3--3-3-3-3-3--3-3--3--3--3-3-3-3-3--3-3--1--1--1-1-1-1-1--1----1--3----3--3-3-3-3-3-3-3------| 
F#|-0--0--0-0-0-0-0--0-0--4--4--4-4-4-4-4--4-4--2--2--2-2-2-2-2--2----2--2----2--2-2-2-2-2-2-2------| 
C#|-0--0--0-0-0-0-0--0-0--4--4--4-4-4-4-4--4-4--2--2--2-2-2-2-2--2----2--0----0--0-0-0-0-0-0-0------| 
G#|-2--2--2-2-2-2-2--2-2--2--2--2-2-2-2-2--2-2--0--0--0-0-0-0-0--0----0-----------------------------| 
D#|-3--3--3-3-3-3-3--3-3----------------------------------------------------------------------------| 

gtr 2 

d#|----------------------------------------------------------------------------14-------------------| 
A#|-----------------------------------------------------------------------17br----15----------------| 
F#|----------------------------------------------------------------------------------14-16----------| 
C#|----------------------------------------------------------------------------------------17-16----| 
G#|----------------------------------------------------------------------------------------------17-| 
D#|-------------------------------------------------------------------------------------------------| 

====== 

Chorus 2 ("Stripper girl, heaven sent...") 

gtr 1 

d#|-------3----3------------2--2---------------| 
A#|-1--1--3----3------------3--3--1--1---------| 
F#|-0--0--0----0------------2--2--0--0---------| 
C#|-2--2--0----0--2--2*--2--0--0--2--2---------| 
G#|-3--3--2----2--2--2*--2--------3--3---------| 
D#|-------3----3--0--0*--0---------------------| 

gtr 2 

d#|------------------------------------17br-15-| 
A#|--------------------------------------------| 
F#|--------------------------------------------| 
C#|--------------------------------------------| 
G#|--------------------------------------------| 
D#|--------------------------------------------| 

= 

gtr 1 

d#|-------3----3------------2--2--------------| 
A#|-1--1--3----3------------3--3--1--1--------| 
F#|-0--0--0----0------------2--2--0--0--------| 
C#|-2--2--0----0--2--2*--2--0--0--2--2--------| 
G#|-3--3--2----2--2--2*--2--------3--3--------| 
D#|-------3----3--0--0*--0--------------------| 

gtr 2 

d#|-17-17b-17brp15--15~---------------------------| 
A#|-------------------------15----12--------------| 
F#|--------------------------------------14----12~| 
C#|-----------------------------------------------| 
G#|-----------------------------------------------| 
D#|-----------------------------------------------| 

====== 

Bridge ("Sometimes you think that I'm a jerk...") 

gtr 1 

d#|-------2--2--------2--2-2-2-------2--2--------2--2-2-2-| 
A#|-------3--3--1--1--3--3-3-3-------3--3--1--1--3--3-3-3-| 
F#|-------4--4--0--0--2--2-2-2-------4--4--0--0--2--2-2-2-| 
C#|-2--2--4--4--2--2--0--0-0-0-2--2--4--4--2--2--0--0-0-0-| 
G#|-2--2--2--2--3--3-----------2--2--2--2--3--3-----------| 
D#|-0--0-----------------------0--0-----------------------| 

gtr 2 

d#|-------------------------------------------------------| 
A#|-------------------------------------------------------| 
F#|--------------------------<9>~-------------------------| 
C#|-------------------------------------------------------| 
G#|-------------------------------------------------------| 
D#|-------------------------------------------------------| 

====== 

Solo Rhythm 

gtr 1 (acoustic) 

d#|-3--------3--------3--------3-| 
A#|-3--------3--------3--------3-| 
F#|-0--------0--------0--------0-| 
C#|-0--------2--------0--------2-| 
G#|-2--------3--------2--------3-| 
D#|-3-----------------3----------| 

====== 

Solo 

gtr 2 
                         |keep bent|                                         T 
d#|-----------------------------------------------------------------------------------| 
A#|-----8-10b~----10brp8-10b-11-12-11r------------------8-10brp8---10br-10b--13~--13b-| 
F#|-7/9--------------------------------12~----------7-9----------9--------------------| 
C#|-------------------------------------------10-8b-----------------------------------| 
G#|-----------------------------------------------------------------------------------| 
D#|-----------------------------------------------------------------------------------| 

= 

gtr 2 (cont'd) 
                              T                  T       T         T     T         T         T 
d#|----------------------------------------------------------------------------------------------------| 
A#|-13pbr-10--8-10-8-7-8-10-8-12-10-8-10-8-7-8---------------------------------------------------------| 
F#|--------------------------------------------7-9-7-6-7-9-5-7-5-4-9-7-5-9-7-5-4-----------------------| 
C#|------------------------------------------------------------------------------7-9-5-7-5-7-9-5-7-5-4-| 
G#|----------------------------------------------------------------------------------------------------| 
D#|----------------------------------------------------------------------------------------------------| 

= 

gtr 2 (cont'd) 
      T 
d#|---------------------| 
A#|---------------------| 
F#|---------------------| 
C#|---------------------| 
G#|-7-9-5-7-5\3-5-3-5-2~| 
D#|---------------------| 

====== 

Post-solo 

gtr 1 (acoustic) 

d#|-3----------3---------3---------3----------3----------3---------3----2----| 
A#|-3-------------3------3-------------3------3-------------3------3----3----| 
F#|-0--------0------0----0--------0------0----0--------0------0----0----2----| 
C#|-0------0----------0--2------2----------0--0------0----------0--2----0----| 
G#|-2----2---------------3----3---------------2----2---------------3---------| 
D#|-3-----------------------------------------3------------------------------| 

gtr 2 
    \/ 
d#|--------------------------------------------------------------------------| 
A#|--------------------------------------------------------------------------| 
F#|-{7}----------------------------------------------------------------------| 
C#|--------------------------------------------------------------------------| 
G#|--------------------------------------------------------------------------| 
D#|-----------------------------------------------------------------------#\-| 

====== 

Chorus 3 ("Stripper girl, on my lap...") 

gtr 1 

d#|-------3----3------------2--2---------------| 
A#|-1--1--3----3------------3--3--1--1---------| 
F#|-0--0--0----0------------2--2--0--0---------| 
C#|-2--2--0----0--2--2*--2--0--0--2--2---------| 
G#|-3--3--2----2--2--2*--2--------3--3---------| 
D#|-------3----3--0--0*--0---------------------| 

gtr 2 

d#|------------------------------------17br-15----15~| 
A#|--------------------------------------------17----| 
F#|--------------------------------------------------| 
C#|--------------------------------------------------| 
G#|--------------------------------------------------| 
D#|--------------------------------------------------| 

= 

gtr 1 
  
d#|-------3----3------------2--2---------------------3----3------------2--2--------------| 
A#|-1--1--3----3------------3--3--1-1-1-1-1-1--1--1--3----3------------3--3--1-1-1-1-1-1-| 
F#|-0--0--0----0------------2--2--0-0-0-0-0-0--0--0--0----0------------2--2--0-0-0-0-0-0-| 
C#|-2--2--0----0--2--2*--2--0--0--2-2-2-2-2-2--2--2--0----0--2--2*--2--0--0--2-2-2-2-2-2-| 
G#|-3--3--2----2--2--2*--2--------3-3-3-3-3-3--3--3--2----2--2--2*--2--------3-3-3-3-3-3-| 
D#|-------3----3--0--0*--0---------------------------3----3--0--0*--0--------------------| 

gtr 2 

d#|----------------------------------------------------------------------------------------| 
A#|-17~----15---------------------------------12------14~----15~----17~--15brp12-----12----| 
F#|-------------------------------------12-14----12~-----------------------------14b----12-| 
C#|-------------------------------12-14----------------------------------------------------| 
G#|----------------------------------------------------------------------------------------| 
D#|----------------------------------------------------------------------------------------| 

gtr 2 (cont'd) 

d#|----------------------------15-17br-17b-17pbr-17~| 
A#|-------------------12-15-17----------------------| 
F#|-12b~-14brp12-14~--------------------------------| 
C#|-------------------------------------------------| 
G#|-------------------------------------------------| 
D#|-------------------------------------------------| 

= 

gtr 1 

d#|-------3----------3----------3----------3-| 
A#|-1--1--3----1--1--3----1--1--3----1--1--3-| 
F#|-0--0--0----0--0--0----0--0--0----0--0--0-| 
C#|-2--2--0----2--2--0----2--2--0----2--2--0-| 
G#|-3--3--2----3--3--2----3--3--2----3--3--2-| 
D#|-------3----------3----------3----------3-| 

gtr 2 

d#|-------------------15-14----------------15-14----------------------------------------| 
A#|-17br-15~-17br-15~-------17------{17}br-------17--------17brp15----------------------| 
F#|----------------------------14~------------------14~------------16-15-14-------------| 
C#|-------------------------------------------------------------------------17-14-------| 
G#|-------------------------------------------------------------------------------17----| 
D#|----------------------------------------------------------------------------------17-| 

= 

gtr 1 

d#|-------3----------3-| 
A#|-1--1--3----1--1--3-| 
F#|-0--0--0----0--0--0-| 
C#|-2--2--0----2--2--0-| 
G#|-3--3--2----3--3--2-| 
D#|-------3----------3-| 

gtr 2 

d#|---------------8------------------------------| 
A#|---------8-10b---10-8----10p8-10-13--13--13\5-| 
F#|-----7-9---------------9----------------------| 
C#|-7-9------------------------------------------| 
G#|----------------------------------------------| 
D#|----------------------------------------------| 
 
		  

See also:

tabs Slipknot - My Plague tabs Marilyn Manson - Sweet Dreams tabs Marilyn Manson - Rock Is Dead tabs Pantera - Floods tabs Rainbow - Catch The Rainbow tabs Slipknot - Vermillion Pt. 2 (ver. 3)
e-chords

Other versions:

tabs Steel Panther - Stripper Girl
auto scroll beats size up size down change color hide chords drawings
tab show chords e-chords YouTube Clip e-chords hide all tabs e-chords go to top tab

share