Steel Panther

Gangbang At The Old Folks Home

Steel Panther

tabs

by  VICTBORGES

save to print version add songbook text version e-mail correct tuner
chordsukulelecavacokeyboardtabbassdrumsharmonicaflute Guitar Pro
close

there isn't a video lesson for this song

chords

Gangbang At The Old Folks Home

	  		
Intro 

gtr 1 
       . .   . .   . .   . .        . .   . . \/      . .   . .   . .   . .      . . . . . . .         
d#|----------------------------------------------------------------------------------------------------| 
A#|-----------------------------------------------------------------------------------------------3--3-| 
F#|-------------------------------------------7---------------------------------------------------0--2-| 
C#|--7-----9-----7-----7-----4----7-----9-----5-----7-----9-----7-----7-----4---------------------0--0-| 
G#|--5-----7-----4-----5-----2----5-----7-----------5-----7-----4-----5-----2----7-5---5-------------0-| 
D#|/\--0-0---0-0---0-0---0-0--------0-0---0-0---------0-0---0-0---0-0---0-0----------7---7-6-5-3~------| 

gtr 2 

d#|----------------------------------------------------------------------------------------------------| 
A#|----------------------------------------------------------------------------------------------------| 
F#|----------------------------------------------------------------------------------------------------| 
C#|----------------------------------------------------------------------------------------------------| 
G#|----------------------------------------------------------------------------------------------------| 
D#|----------------------------------------------------------------------------------------------------| 

= 

gtr 1 
       . .   . .   . .   . .        . .   . . \/      . .   . .   . .   . .      . . . . . . .         
d#|----------------------------------------------------------------------------------------------------| 
A#|-----------------------------------------------------------------------------------------------3--3-| 
F#|-------------------------------------------7---------------------------------------------------0--2-| 
C#|--7-----9-----7-----7-----4----7-----9-----5-----7-----9-----7-----7-----4---------------------0--0-| 
G#|--5-----7-----4-----5-----2----5-----7-----------5-----7-----4-----5-----2----7-5---5-------------0-| 
D#|/\--0-0---0-0---0-0---0-0--------0-0---0-0---------0-0---0-0---0-0---0-0----------7---7-6-5-3~------| 

gtr 2 
    (first one: pick near bridge pickup, second: near neck pickup) 
d#|----------------------------------------------------------------------------------------------------| 
A#|----------------------------------------------------------------------------------------------------| 
F#|-<12>-----------------------<12>~-------------------------------------------------------------------| 
C#|----------------------------------------------------------------------------------------------------| 
G#|----------------------------------------------------------------------------------------------------| 
D#|----------------------------------------------------------------------------------------------------| 

= 

gtr 1 
       . .   . .   . .   . .        . .   . . \/      . .   . .   . .   . .      . . . . . . .         
d#|-----------------------------------------------------------------------------------------------------| 
A#|-----------------------------------------------------------------------------------------------3---3-| 
F#|-------------------------------------------7---------------------------------------------------0---2-| 
C#|--7-----9-----7-----7-----4----7-----9-----5-----7-----9-----7-----7-----4---------------------0---0-| 
G#|--5-----7-----4-----5-----2----5-----7-----------5-----7-----4-----5-----2----7-5---5--------------0-| 
D#|/\--0-0---0-0---0-0---0-0--------0-0---0-0---------0-0---0-0---0-0---0-0----------7---7-6-5-3~-------| 

gtr 2 
                    T          T   T    T    T    T (basically, crazily bend with fretting hand and tap.) 
d#|--------------------------------------------------------------------------------------------------------| 
A#|-9br9b-----------12----rb9--12--12p10h12p9h12p10h12p9--10~----------------------------------------------| 
F#|--------------------------------------------------------------------------------------------------------| 
C#|------------------------------------------------------------------------------------------------<5>~----| 
G#|----------------------------------------------------------------------------------------------------<5>~| 
D#|--------------------------------------------------------------------------------------------------------| 

======= 

verse 1 ("Deliver pizza on a Saturday night...") 

     .   .   .             .      . . .            . 
d#|---------------------------------------------------------| 
A#|-------------------------------------------3-3-3-3-| 
F#|------------2---------------------2-2-2----3-3-3-0-| 
C#|2---4---5---2------0h2---2---4----2-2-2----3-3-3-0-| 
G#|2---4---5------0h2-------2---4----0-0-0------------------| 
D#|--0---0---0----------------0-----------------------------| 

= 

     .   .   . 
d#|-------------------------------| 
A#|--------------------------3--3-| 
F#|------------2--4--4--2----0--2-| 
C#|2---4---5---2--4--4--2----0--0-| 
G#|2---4---5------2--2--0-------0-| 
D#|--0---0---0--------------------| 

====== 

Pre-verse 1 

      . .   . .   . .   . .        . .   . . 
d#|--------------------------------------------| 
A#|--------------------------------------------| 
F#|------------------------------------------7-| 
C#|-7-----9-----7-----7-----4----7-----9-----5-| 
G#|-5-----7-----4-----5-----2----5-----7-------| 
D#|---0-0---0-0---0-0---0-0--------0-0---0-0---| 

====== 

verse 2 ("The place was packed with wrinkly...") 

     .   .   .                . 
d#|---------------------------------------------------------| 
A#|----------------------------------------------------x--3-| 
F#|------------2---------------------2-2-2-------------x--0-| 
C#|2---4---5---2------0h2---2---4----2-2-2-------------x--0-| 
G#|2---4---5------0h2-------2---4----0-0-0------------------| 
D#|--0---0---0----------------0-----------------------------| 

= 

     .   .   . 
d#|-----------------------------------------| 
A#|------------------------------------3--3-| 
F#|------------2--4-4-4-4-4-4-4-4-2----0--2-| 
C#|2---4---5---2--4-4-4-4-4-4-4-4-2----0--0-| 
G#|2---4---5------2-2-2-2-2-2-2-2-0-------0-| 
D#|--0---0---0------------------------------| 

====== 

Chorus 1 ("Gangbang at the old folks' home, one foot in the grave...") 
                                    . . 
d#|----3---------------3------------------------3------3-| 
A#|----3---------------3------------------------3------3-| 
F#|4---0---7-7-2---4---0----7---9-----------4---0--7-7-0-| 
C#|4---0---7-7-2---4---0----7---9-----------4---0--7-7-2-| 
G#|2---x---5-5-0---2---x----5---7------<7>~-2---x--5-5-3-| 
D#|----3---------------3------------0-0---------3--------| 

====== 

Pre-verse 2 

gtr 1 
      . .   . .   . .   . .      . . . . . . . 
d#|------------------------------------------------------| 
A#|-----------------------------------------------3---3--| 
F#|-----------------------------------------------0---2--| 
C#|-7-----9-----7-----7-----4---------------------0---0--| 
G#|-5-----7-----4-----5-----2----7-5---5--------------0--| 
D#|---0-0---0-0---0-0---0-0----------7---7-6-5-3~--------| 

gtr 2 

d#|-------------------------------------------------------| 
A#|-17brb----17~------------------------------------------| 
F#|-------------------------------------------------------| 
C#|----------------------------------------------<5>~-----| 
G#|--------------------------------------------------<5>~-| 
D#|-------------------------------------------------------| 

======= 

verse 3 ("The smell of Bengay...") 

     .   .   .                . 
d#|---------------------------------------------------------| 
A#|----------------------------------------------------x--3-| 
F#|------------2---------------------2-2-2-------------x--0-| 
C#|2---4---5---2------0h2---2---4----2-2-2-------------x--0-| 
G#|2---4---5------0h2-------2---4----0-0-0------------------| 
D#|--0---0---0----------------0-----------------------------| 

= 

     .   .   . 
d#|-----------------------------------------| 
A#|-----------------------------------------| 
F#|---------------4-4-4-4-4-4-4-4-2-2-2-2-5-| 
C#|2---4---5---7--4-4-4-4-4-4-4-4-2-2-2-2-3-| 
G#|2---4---5---7--2-2-2-2-2-2-2-2-0-0-0-0---| 
D#|--0---0---0------------------------------| 

======= 

Chorus 2 ("Gangbang at the old folks' home, senile sex slaves...") 
                                    . . 
d#|----3---------------3------------------------3------3-| 
A#|----3---------------3------------------------3------3-| 
F#|4---0---7-7-2---4---0----7---9-----------4---0--7-7-0-| 
C#|4---0---7-7-2---4---0----7---9-----------4---0--7-7-2-| 
G#|2---x---5-5-0---2---x----5---7------<7>~-2---x--5-5-3-| 
D#|----3---------------3------------0-0---------3--------| 


======= 

Pre-solo ("I took her doggy and I gave her a spank...) 

d#|------------------------------------------------------| 
A#|------------------3-------------------------------3-3-| 
F#|-2---2---2-2------2--2---2---2-2---3p2p0----------0-2-| 
C#|-2---2---2-2----5-0--2---2---2-2--------3p2p0-----0-0-| 
G#|-0---0---0-0----5----0---0---0-0-------------3p0------| 
D#|----------------3-------------------------------------| 

= 

d#|------------------------------------------| 
A#|------------------------------------------| 
F#|-4---4---4-4----2----4-4--4-4--4-5----7-9-| 
C#|-4---4---4-4----2-2--4-4--4-4--4-5----7-9-| 
G#|-2---2---2-2----0-2--2-2--2-2--2-3----5-7-| 
D#|------------------0-----------------------| 

====== 

Solo 

gtr 1 (don't get confused, the B & G bend lick tends to blend with the rhythm) 
                                
d#|-------------------------------------------------------------------------------------------| 
A#|--------------------------------------------3----------------------------------------------| 
F#|--------------------------------------------2-2------------------------------------------4-| 
C#|-4-4--4-4--4-4----<5>~-----4-4--4-4--4-4----0-2---4-4--4-4--4-4----<5>~------4-4--4-4--4-4-| 
G#|-4-4--4-4--4-4--------<5>~-4-4--4-4--4-4------0---4-4--4-4--4-4--------<5>~--4-4--4-4--4-2-| 
D#|-2-2--2-2--2-2-------------2-2--2-2--2-2----------2-2--2-2--2-2--------------2-2--2-2--2---| 

= 

gtr 2 
   (gradually release)                . . 
d#|--------------------------------------------------| 
A#|--------------------4-----------------3br~--------| 
F#|3b----3~----3brp1-----3brp1--------1--3br~--/8br~-| 
C#|------------------3---------3-3~-----1------------| 
G#|--------------------------------------------------| 
D#|--------------------------------------------------| 
Satchel usually plays the above pattern. 
If you find it easier, here's an alternate fingering: 
gtr 2 
   (gradually release)                . . 
d#|--------------------------------------------------| 
A#|--------------------------------------3br~--4br~--| 
F#|--------------------8-----------------3br~--------| 
C#|8b----8~----8brp6-----8brp6--------6--------------| 
G#|------------------8---------8-8~-----6------------| 
D#|--------------------------------------------------| 

= 

d#|-----13-------13-------13-------13-------13-| 
A#|--------------------------------------------| 
F#|-/10----10-10----10-10----10-10----10-10----| 
C#|--------------------------------------------| 
G#|--------------------------------------------| 
D#|--------------------------------------------| 

= 

d#|------11-------10----------------------------| 
A#|------------------------13----11-------------| 
F#|10-10----10-10----10-10----10----10-13-10-12~| 
C#|---------------------------------------------| 
G#|---------------------------------------------| 
D#|---------------------------------------------| 

= 

d#|---------------------------------------------------------------------------| 
A#|-9h11p9p8-----------------------------------15--------13-------11--\10-\9--| 
F#|----------10-10~---8h10p8--------------------------------------------------| 
C#|--------------------------10----------13/15-----15\13----10/12-----\11-\10-| 
G#|-----------------------------11-8~-----------------------------------------| 
D#|---------------------------------------------------------------------------| 

====== 

verse 4 ("Three silver foxes...") 

     .   .   .             . 
d#|---------------------------------------------------------| 
A#|----------------------------------------------------x--3-| 
F#|------------2---------------------2-2-2-------------x--0-| 
C#|2---4---5---2------0h2---2---4----2-2-2-------------x--0-| 
G#|2---4---5------0h2-------2---4----0-0-0------------------| 
D#|--0---0---0----------------0-----------------------------| 

= 

     .   .   . 
d#|-------------------------------| 
A#|-----------------------------3-| 
F#|---------------4-4-4-4-4-4-4-2-| 
C#|2---4---5---7--4-4-4-4-4-4-4-0-| 
G#|2---4---5---7--2-2-2-2-2-2-2-0-| 
D#|--0---0---0--------------------| 

====== 

Chorus 3 ("Gangbang at the old folk's home, I rode a sex train...") 

d#|----3---------------3------------------------3------| 
A#|----3---------------3------------------------3------| 
F#|4---0---7-7-2---4---0----7---9-----------4---0--2-2-| 
C#|4---0---7-7-2---4---0----7---9-----------4---0--2-2-| 
G#|2---x---5-5-0---2---x----5---7------<7>~-2---x--0-0-| 
D#|----3---------------3------------0-0---------3------| 

====== 

Outro 

gtr 1 
       . .   . .   . .   . .        . .   . . \/      . .   . .   . .   . .      . . . . . . .         
d#|---------------------------------------------------------------------------------------------------| 
A#|-----------------------------------------------------------------------------------------------3--3| 
F#|-------------------------------------------7---------------------------------------------------0--2| 
C#|--7-----9-----7-----7-----4----7-----9-----5-----7-----9-----7-----7-----4---------------------0--0| 
G#|--5-----7-----4-----5-----2----5-----7-----------5-----7-----4-----5-----2----7-5---5-------------0| 
D#|/\--0-0---0-0---0-0---0-0--------0-0---0-0---------0-0---0-0---0-0---0-0----------7---7-6-5-3~-----| 

gtr 2 
                                                    .  .  .  .  .  . 
d#|--------19brb-19b-19b-19--------------------------------------------------------------------------| 
A#|------------------------17~--15~--12h15p12----12--------------------------------------------------| 
F#|-------------------------------------------15----15-14-12----15-12----<12>~-----------------------| 
C#|----------------------------------------------------------14--------------------------------------| 
G#|--------------------------------------------------------------------------------------------------| 
D#|--------------------------------------------------------------------------------------------------| 

= 

gtr 1 
       . .   . .   . .   . .        . .   . . \/      . .   . .   . .   . .      . . . . . . .         
d#|---------------------------------------------------------------------------------------------------| 
A#|------------------------------------------------------------------------------------------------3-3| 
F#|-------------------------------------------7----------------------------------------------------0-2| 
C#|--7-----9-----7-----7-----4----7-----9-----5-----7-----9-----7-----7-----4----------------------0-0| 
G#|--5-----7-----4-----5-----2----5-----7-----------5-----7-----4-----5-----2----7-5---5-------------0| 
D#|/\--0-0---0-0---0-0---0-0--------0-0---0-0---------0-0---0-0---0-0---0-0----------7---7-6-5-3~-----| 

gtr 2 
              T 
d#|--------------------------------------------12b-12-9-----------------------------------------------| 
A#|-(12h15p12-17/)---------------13b--------------------12-9------------------------------------------| 
F#|----play 5x-----------------------------------------------12-11-9----------------------------------| 
C#|------------------------------------------------------------------11-9-----------------------------| 
G#|-----------------------------------------------------------------------11-9-7----------------------| 
D#|---------------------------------------------------------------------------------------------------| 

= 

gtr 1 

d#|-------------------------------------------------------------------| 
A#|-------------------------------------------------------------------| 
F#|-------------------------------------------------------------------| 
C#|-2----2------2------2----------------------------------------------| 
G#|-2----2------2------2----------------------------------------------| 
D#|-0----0------0------0----------------------------------------------| 

gtr 2 
   (pick near neck pickup)               T    T    T    T    T 
d#|-------------------------------------------------------------------| 
A#|<10>-<10>---<10>---<10>~-------12tr15-17/--17/--17/--17/--17/-15br-| 
F#|-------------------------------------------------------------------| 
C#|-------------------------------------------------------------------| 
G#|-------------------------------------------------------------------| 
D#|-------------------------------------------------------------------| 

Legend 
------ 
====== - Section, such as Bridge or solo, closed (after correct number of plays, move to the next section) 
= - Section, such as bridge, still active: after correct number of plays, move to next bar. 
* - deaden note 
x - dead string 
. - palm mute 
^ - Upstroke 
x(#) - Repeat as indicated (x3 indicates repeating the riff twice more, etc.) 
\/ - use tremolo bar 
<> - pinch harmonic (bring the picking thumb across the string after picking note) 
 - natural harmonic (lightly rest fretting finger on string, then pick) 
b - bend ("16b19" would indicate bending the 16th fret to a pitch of the 19th fret, 
          or a one and one half step bend. "br": bend then release) 
h - hammer-on to indicated fret 
p - pull-off to indicated fret 
pb - pre-bend ("pbr": pre-bend then release) 
r - release ("16b19r16" would indicate bending the 16th fret up one and one half step 
             then releasing back to a 16th fret pitch)  
/ - slide up (higher in pitch) 
\ - slide down (lower in pitch) 
T - Tap note with pick or a picking hand finger 
trm - tremolo pick 
~ - vibrato 
		  

See also:

tabs Slipknot - My Plague tabs Marilyn Manson - Sweet Dreams tabs Marilyn Manson - Rock Is Dead tabs Pantera - Floods tabs Rainbow - Catch The Rainbow tabs Slipknot - Vermillion Pt. 2 (ver. 3)
e-chords

Other versions:

tabs Steel Panther - Gangbang At The Old Folks Home
auto scroll beats size up size down change color hide chords drawings
tab show chords e-chords YouTube Clip e-chords hide all tabs e-chords go to top tab

share