Soulfly

First Commandment

Soulfly

tabs

by  MAX(BA)

save to print version add songbook text version e-mail correct tuner
chordsukulelecavacokeyboardtabbassdrumsharmonicaflute Guitar Pro
close

there isn't a video lesson for this song

chords

First Commandment

	  		Tune down to B (B E A D F# B) 
  
 LEGEND: 
 	/ or \ - slide up or down 
 	~~     - vibrato 
 	p      - pull off 
   	h	 - hammer on 
  	b	 - bend 
 	N	 - natural harmonics 
 	A	 - artifical harmonics 
 	*	 - palm mute 
 	trem.  - tremelo pick 
         ^	 - arpeggiate 
  
 ---------------------------------------------------------------------------- 
  
 Main Riff 
  
 B|----------| 
 F|-----9b---| 
 D|----------| 
 A|----------| 
 E|-6-6------| 
 B|-4-4------| play four times then play 
  
 B|----------| 
 F|----------| 
 D|----------| 
 A|------6b--| 
 E|-6-6------| 
 B|-4-4------| play four times then start again 
  
  
 Fill One (w/ pitch-shifter) 
  
 B|---------------------------| 
 F|---------------------------| 
 D|---------------------------| 
 A|-----6-6-6-6---------------| 
 E|-----------------5-5-5-5---| 
 B|-4-4---------4-4-----------| 
     
  
 Main Riff Two 
  
 B|-----------| 
 F|-----------| 
 D|-----------| 
 A|-----------| 
 E|-6-7-9-10--| 
 B|-4-5-7-8---| 
  
 Fill Two (sitar arr. for guitar) 
  
 B|------------------------------------------| 
 F|---------------------------9-12-12-12-----| 
 D|-9-10-9-10-9-10-9-10--9-10----------------| 
 A|------------------------------------------| 
 E|------------------------------------------| 
 B|------------------------------------------| 
		  

See also:

tabs Tenacious D - Her Gently tabs Trivium - Pull Harder On The Strings Of Your Martyr tabs Jesus Christ Superstar - Overture tabs Tenacious D - Its A Long Way To The Top tabs Tenacious D - One Note Song tabs Tenacious D - Wonderboy (ver. 1)
e-chords

Other versions:

tabs Soulfly - First Commandment
auto scroll beats size up size down change color hide chords drawings
tab show chords e-chords YouTube Clip e-chords hide all tabs e-chords go to top tab

share