Slipknot

home > Slipknot

Vermilion Pt.2 (versão Correta) Tab

Slipknot

Difficulty: ExpertExpert

by vermilion

tuner correct add songbook print version text version save to e-mail
chordsukulelecavacokeyboardtabbassdrumsharmonicsflute Guitar Pro
chords

Vermilion Pt.2 (versão Correta)

  		 
riff1    
 E|---------------------------------------------------------------| 
 B|---------------------------------------------------------------| 
 G|---------------9-9-9-8-8-8/9-8---------------------------------| 
 D|---6-6-6-0-0-0-9-9-9-8-8-8/9-8-3-4-4-4-4-4-4-3-4-3-------------| 
 A|---6-6-6-6-6-6-7-7-7-6-6-6/7-6-3-4-4-4-4-4-4-4-4-4-------------| 
 E|---4-4-4-6-6-6-----------------1-2-2-2-2-2-2-2-2-2-------------| 
	 
riff2  
 E|----0-------| 
 B|----0-------| 
 G|----0-------| 
 D|----1-------| 
 A|----2-------| 
 E|----2-------| 
 
riff3  
 E|-------------------------------------------| 
 B|-------------------------------------------| 
 G|-------------------------------------------| 
 D|----1/3-4-4-4-4-4-4-4-3-3-3-4-4-4--3-------| 
 A|----2/4-4-4-4-4-4-4-4-4-4-4-4-4-4--4-------| 
 E|----2/4-2-2-2-2-2-2-2-2-2-2-2-2-2--2-------| 
 
riff1    
 E|---------------------------------------------------------------| 
 B|---------------------------------------------------------------| 
 G|---------------9-9-9-8-8-8/9-8---------------------------------| 
 D|---6-6-6-0-0-0-9-9-9-8-8-8/9-8-3-4-4-4-4-4-4-3-4-3-------------| 
 A|---6-6-6-6-6-6-7-7-7-6-6-6/7-6-3-4-4-4-4-4-4-4-4-4-------------| 
 E|---4-4-4-6-6-6-----------------1-2-2-2-2-2-2-2-2-2-------------| 
       
 riff2 
 E|----0-------| 
 B|----0-------| 
 G|----0-------| 
 D|----1-------| 
 A|----2-------| 
 E|----2-------| 
 
riff3 
 E|-------------------------------------------| 
 B|-------------------------------------------| 
 G|-------------------------------------------| 
 D|----1/3-4-4-4-4-4-4-4-3-3-3-4-4-4--3-------| 
 A|----2/4-4-4-4-4-4-4-4-4-4-4-4-4-4--4-------| 
 E|----2/4-2-2-2-2-2-2-2-2-2-2-2-2-2--2-------| 
 
riff4 
 E|--------------------------------------------| 
 B|--------------------------------------------| 
 G|--------------4-4-4-4-7---------------------| 
 D|--5-5-5-4-4-4-4-4-4-4-7---------------------| 
 A|--5-5-5-4-4-2-2-2-2-2-5---------------------| 
 E|--3-3-3-2-2-2-------------------------------| 
 
 
riff5 (acompanhado do violino) 
E|---------------------------------------------| 
B|---------------------------------------------| 
G|-----------6-4-3-4-9-------------------------| 
D|-4/6/7-5-7-6-4-3-4-9-------------------------| 
A|-4/6/7-5-7-4-2-1-2-7-------------------------| 
E|-2/4/5-3-5-----------------------------------| 
 
riff6 
E|---------------------------------------------| 
B|---------------------------------------------| 
G|---------4-4-4-4-4-4-4-4-4-4-----------------| 
D|---------4-4-4-4-4-4-4-4-4-4-7-7-7-5-5-5-----| 
A|---------2-2-2-2-2-2-2-2-2-2-7-7-7-5-5-5-----| 
E|-----------------------------5-5-5-3-3-3-----| 
 
riff4 
 E|--------------------------------------------| 
 B|--------------------------------------------| 
 G|--------------4-4-4-4-7---------------------| 
 D|--5-5-5-4-4-4-4-4-4-4-7---------------------| 
 A|--5-5-5-4-4-2-2-2-2-2-5---------------------| 
 E|--3-3-3-2-2-2-------------------------------| 
 
riff1     
 E|---------------------------------------------------------------| 
 B|---------------------------------------------------------------| 
 G|---------------9-9-9-8-8-8/9-8---------------------------------| 
 D|---6-6-6-0-0-0-9-9-9-8-8-8/9-8-3-4-4-4-4-4-4-3-4-3-------------| 
 A|---6-6-6-6-6-6-7-7-7-6-6-6/7-6-3-4-4-4-4-4-4-4-4-4-------------| 
 E|---4-4-4-6-6-6-----------------1-2-2-2-2-2-2-2-2-2-------------| 
       
 
_____ 
 
 
 
 
--riff1------------------------------------------------------| 
	(G#m G#m/A# E Ebm B)  
 She seemed dressed in all of me Strechted across my shame 
 All the torment and the pain Leaked through and covered me 
 I do anything to have her to myself just to have her for myself 
 Now I don't know what to do 
 
--riff2------------------------------------------------------| 
		   ( E ) 
I don't know what to do 
 
--riff3------------------------------------------------------| 
(F#/C#            B ) 
When she make me sad 
 
--riff1------------------------------------------------------| 
	(G#m G#m/A# E Ebm B) 
She is everthing to me The unrequited dream 
 A song that no one sings The Unattainable 
 She's a myth that I have to believe in All I need to make it real is one more Reason 
 I don't know what to do 
 
--riff2------------------------------------------------------|	 
		   ( E ) 
I don't know what to do 
 
--riff3------------------------------------------------------| 
(F#/C#           B ) 
When she make me sad 
 
--riff4------------------------------------------------------| 
 
( G F#m Bm D ) 
But I won't let this build up inside of me 
I won't let this build up inside of me 
I won't let this build up inside of me 
I won't let this build up inside of me 
 
(|--riff5--|) 
______________ 
 
--riff6------------------------------------------------------| 
             Bm             A9        G              
I catch my trhoat, choke, torn in to pieces 
     Bm           A9 		    G 
I won't, no, I don't want to be this 
 
--riff4------------------------------------------------------| 
( G F#m Bm D ) 
But I won't let this build up inside of me 
I won't let this build up inside of me 
I won't let this build up inside of me 
I won't let this build up inside of me 
 
--riff1------------------------------------------------------| 
(G#m G#m/A# E Ebm B) 
Won't let this build up inside of me 2x 
--riff1------------------------------------------------------| 
(G#m G#m/A# E Ebm B) 
She isn't real (won't let this build up inside of me) 
I can't make her real (won't let this build up inside of me) 
 
She isn't real (won't let this build up inside of me) 
I can't make her real (won't let this build up inside of me) 
-------------------------------------------------------------| 
Final 
 E|------------------| 
 B|------------------| 
 G|-------9-8--------| 
 D|---6-8------------| 
 A|------------------| 
 E|------------------| 
 

	  

Full key step upFull key step up
Half key step upHalf key step up
Half key step downHalf key step down
Full key step downFull key step down
Search Paypal
auto scroll beats size up size down change color hide chords drawings
tab show chords e-chords YouTube Clip e-chords hide all tabs e-chords go to top tab